» » »

40 Below Summer, We The People Tabs (ver.3)

Artists:  A B C D E F G H I J K L M N O P Q R S T U V W X Y Z # 

We The People Tabs (ver.3)

40 Below Summer Tabs
 Rating:
4/5 (4 votes)
We The People lessons Tabs too difficult? Try these video lessons and learn fast
                Tuning B F# B E G# C#

    Intro/main riff:
 C#|------------------------------------|
 G#|------------------------------------|
 E |------------------------------------|
 B |------------------------------------|
 F#|--3--3--3--2----------3--3--2--2----|
 B |--3--3--3--2----------3--3--2--2----|

    Verse: tremelo picked
 C#|------------------------------------------------------14-15-14-15~-|
 G#|--12-12-12-12-12-12-1212--13~-------12-12-1212121212---------------|
 E |-------------------------------------------------------------------|
 B |-------------------------------------------------------------------|
 F#|-------------------------------------------------------------------|
 B |-------------------------------------------------------------------|

    Chorus:
 C#|----------------------------------|
 G#|----------------------------------|
 E |----------------------------------|
 B |----------------------------------|
 F#|--2--0--2---3--3--2--0--2---3--3--|
 B |--2--0--2---3--3--2--0--2---3--3--|
 pm .......          ......  
 
   Don’t palm mute the first time you play each chorus.
 C#|------------------------------------------|
 G#|------------------------------------------|
 E |-10-10-10-9-9-9-10-10-10-9-9-9-10-10-9-9--|
 B |--8--8--8-7-7-7--8--8--8-7-7-7--8--8-7-7--|
 F#|--8--8--8-7-7-7--8--8--8-7-7-7--8--8-7-7--|
 B |--8--8--8-7-7-7--8--8--8-7-7-7--8--8-7-7--|

    Bridge fill:
 C#|------------------------------------|
 G#|------------------------------------|
 E |------------------------------------|
 B |------------------------------------|
 F#|--8-8-8-7-7-7-8-8-8-7-7-7-8-8-7-7---|
 B |--8-8-8-7-7-7-8-8-8-7-7-7-8-8-7-7---|
 pm.....................................


 Bridge: (w/ acoustic tone)
 C#|--3-3-3-3-3-3-3-3----5-5-5-5-5-5-5-5-------|
 G#|--6-6-6-6-6-6-6-6----8-8-8-8-8-8-8-8-------|
 E |--5-5-5-5-5-5-5-5----7-7-7-7-7-7-7-7-------|
 B |--3-3-3-3-3-3-3-3----5-5-5-5-5-5-5-5-------|
 F#|--3-3-3-3-3-3-3-3----5-5-5-5-5-5-5-5-------|
 B |--3-3-3-3-3-3-3-3----5-5-5-5-5-5-5-5-------|


    Outro:
 C#|------------------------------------|
 G#|------------------------------------|
 E |------------------------------------|
 B |------------------------------------|
 F#|--3--3--3--2----------3--3--2--2----|
 B |--3--3--3--2----------3--3--2--2----|
            
Submit corrections

comments powered by Disqus
↑ Back to top | 40 Below Summer Tabs for We The People. Lyrics for acoustic guitar and electric guitar. Tablatures and chords are parodies/interpretations of the original songs. You may use it for private study, scholarship, research or language learning purposes only