» » »

40 Below Summer, We The People Bass tabs (ver.1)

Artists:  A B C D E F G H I J K L M N O P Q R S T U V W X Y Z # 

We The People Bass tabs (ver.1)

40 Below Summer Tabs
 Rating:
3.7/5 (6 votes)
We The People lessons Tabs too difficult? Try these video lessons and learn fast
                Tuning: B, F#, B, E


Intro/main riff:
E |------------------------------------|-----------|
B |------------------------------------|-----------|
F#|------------------------------------|-----------|
B |--3--3--3--2-----3----3--3--2--2----|--2--2-----|

Verse:
E |------------------------------------------------|
B |------------------------------------------------|
F#|------------------------------------------------|
B |--3--3--3--2-----3----3--3--2--2-----2--2-2-2-2-|

Chorus:
E |-----------------------------------|
B |-----------------------------------|
F#|-----------------------------------|
B |--2--0--2---3--3--2--0--2---3--3---|

E |------------------------------------------|
B |------------------------------------------|
F#|------------------------------------------|
B |--8--8--8-7-7-7--8--8--8-7-7-7--8--8-7-7--|

Entrance into Bridge:
E |-----------------------------------|
B |-----------------------------------|
F#|-----------------------------------|
B |--8-8-8-7-7-7-8-8-8-7-7-7-8-8-7-7--|
    
Then fade into the bridge with this:
E |-------|
B |-------|
F#|-------|
B |--3----|

Bridge: 
E |--------------------------|
B |--------------------------|
F#|--------------------------|
B |--3~--------------5~------|

Outro:
E |----------------------------------|
B |----------------------------------|
F#|----------------------------------|
B |--3--3--3--2-----3----3--3--2--2--|

E |----------------------------------|
B |----------------------------------|
F#|----------------------------------|
B |--3--3--3--2-----3----3--3--x--x--|
            
Submit corrections

comments powered by Disqus
↑ Back to top | 40 Below Summer Bass for We The People. Lyrics for acoustic guitar and electric guitar. Tablatures and chords are parodies/interpretations of the original songs. You may use it for private study, scholarship, research or language learning purposes only