» » »

40 Below Summer, We The People Tabs (ver.1)

Artists:  A B C D E F G H I J K L M N O P Q R S T U V W X Y Z # 

We The People Tabs (ver.1)

40 Below Summer Tabs
 Rating:
4.2/5 (5 votes)
We The People lessons Tabs too difficult? Try these video lessons and learn fast
                 b**chIN' TABS


        THIS IS AN EXCLUSIVE TAB TO "b**chIN' TABS"

 ----------------------------------------------------------------------------------------------

	     BAND: 40 Below Summer

 ----------------------------------------------------------------------------------------------

	TUNING: Drop D and down 1/2 step (Db Ab Db Gb Bb Eb)

      Riff 1:
    Eb|-----------------------------------------------------|
    Bb|-----------------------------------------------------|
    Gb|-----------------------------------------------------| PM=palm mute
    Db|-1-1-1-0--1--1-1-0-0---1-1-1-0--1--1-1-0-0-------[7]-| [x]=natural harmonic
    Ab|-1-1-1-0--1--1-1-0-0---1-1-1-0--1--1-1-0-0-----------|
    Db|-1-1-1-0--1--1-1-0-0---1-1-1-0--1--1-1-0-0--0-0------|
     PM       -  -        -         -  -        -  - -

      Riff 2a: (verse, guitar 1)
    Eb|-----------------------12-----|
    Bb|-10-----11--10h11p10----------|
    Gb|------------------------------|
    Db|------------------------------|
    Ab|------------------------------|
    Db|------------------------------|

      Riff 2b: (verse, guitar 2)
    Eb|------------------------------|
    Bb|------------------------------|
    Gb|------------------------------| palm mute the whole riff
    Db|-13-13-13-12--13--13-13-12-12-| last time slowely release mutes
    Ab|-13-13-13-12--13--13-13-12-12-|
    Db|-13-13-13-12--13--13-13-12-12-|

      Riff 3:
    Eb|------------------------------------------------|
    Bb|------------------------------------------------|
    Gb|-----------------------8-8-8-8-7-7--8-8-8-8-7-7-|
    Db|-x-x-0--1-1--x-x-0--1--x-x-x-x-x-x--x-x-x-x-x-x-|
    Ab|-x-x-0--1-1--x-x-0--1--6-6-6-6-5-5--6-6-6-6-5-5-|
    Db|-x-x-0--1-1--x-x-0--1---------------------------|

      Riff 4:
    Eb|---------------------|
    Bb|---------------------|
    Gb|---------------------|
    Db|-1-1-1-0--1--1-1-0-0-|
    Ab|-1-1-1-0--1--1-1-0-0-|
    Db|-1-1-1-0--1--1-1-0-0-|
     PM       -  -        -

      Riff 5a: (pre-break, guitar 1)        D
    Eb|-----------------------------------|---|
    Bb|-----------------------------------|---|
    Gb|-----------------------------------|-8-| End on D
    Db|-----------------------------------|-x-|
    Ab|-----------------------------------|-6-|
    Db|-1-1-1-0-0-0--1-1-1-0-0-0--1-1-0-0-|---|
     PM - - - - - -  - - - - - -  - - - -

      Riff 5b: (pre-break, guitar 2)        D
    Eb|-----------------------------------|---|
    Bb|-----------------------------------|---|
    Gb|-8-8-8-7-7-7--8-8-8-7-7-7--8-8-7-7-|-8-| End on D
    Db|-x-x-x-x-x-x--x-x-x-x-x-x--x-x-x-x-|-x-|
    Ab|-6-6-6-5-5-5--6-6-6-5-5-5--6-6-5-5-|-6-|
    Db|-----------------------------------|---|
     PM - - - - - -  - - - - - -  - - - -

      Riff 6a: (break, guitar 1, clean)
    Eb|-------------------------------------------------------|
    Bb|-------6-----------6---------------6-----------6-------|
    Gb|-----8---8-------8---8-----------7---7-------7---7-----| arrpigate something
    Db|---8-------8---8-------8-------7-------7---7-------7---| like that
    Ab|-6-----------6-----------6-0-5-----------5-----------0-|
    Db|-------------------------------------------------------|

      Riff 6b: (break, guitar 2, clean)
    Eb|-6-|-5-|
    Bb|-6-|-6-|
    Gb|-8-|-7-| strum these two chords and end on the x57765 chord
    Db|-8-|-7-|
    Ab|-6-|-5-|
    Db|---|---|
            
Submit corrections

comments powered by Disqus
↑ Back to top | 40 Below Summer Tabs for We The People. Lyrics for acoustic guitar and electric guitar. Tablatures and chords are parodies/interpretations of the original songs. You may use it for private study, scholarship, research or language learning purposes only