>
 >
Rope 2

Rope 2 Guitar Tabs

40 Below Summer - Rope 2 chords, tabs, tablatures, lyrics

Guitar lessons | Add/correct | Request | Top 50 tabs Artists:  A B C D E F G H I J K L M N O P Q R S T U V W X Y Z 0-9

Rope 2 Guitar Tabs – 40 Below Summer

CD, Sheet music, Poster

Do you like Rope 2? Share with your friends now
Bass TabsTabsTabs v2Tabs v3
I saw the other couple tabs on this site, and no one really covered the whole song, so here's my interpretation.

Tuning: Dropped-D down 1  steps (low to high, B, F#, B, E, G#, C#)

Key:
P.M. : Palm mute
% : Rest
X : String mute

This band also uses 2 guitarists, so I basically just tried my best to combine both their parts into 1.

Intro (while bass plays):

B |--0--

(let ring out with feedback and various noises)

This also may just be one of the guitarists slamming into the body of their guitar to sound the note.


Main Riff: (x4)

F#|--0--0--0--7--7--7--8--8--8--3--3--3--5--5--5--5--
B |--0--0--0--7--7--7--8--8--8--3--3--3--5--5--5--5--


Verse:

A) (x3)

F#|--0--0--0--7--7--7--8--%-----3--3--3--5--5--5--5--
B |--0--0--0--7--7--7--8--------3--3--3--5--5--5--5--
    [P.M.------------------------------------------]

B) (x1)

E |-----------------------------5--5--5--5--7--7--7--
B |-----------------------------3--3--3--3--5--5--5--
F#|--0--0--0--7--7--7--8--%-----3--3--3--3--5--5--5--
B |--0--0--0--7--7--7--8-----------------------------
    [P.M.---------------]

C) (x4)

F#|--0--0--0--7--7--7--8--%-----3--3--3--3--5--5--5--
B |--0--0--0-----------------------3--3--------------
    [P.M.---]                     [----]

Play main riff 4 more times


Chorus: (x4)

F#|--2--2--2--2--2---2--%---2--2--2--2--%---2--0---3--
B |--2--2--2--2--2---2------2--2--2--2------2--0---3--
    [P.M.------------------------------------]


Bridge:

I don't know how exactly to tab this. It's all pretty much ad-libbed, but the notes that seem to be coming up most are at the 9th and 10th fret on the D 4th string. It sounds like a clean tone and there are various different effects used, possibly delay, tremolo effects, and so on. Then at the end of the bridge:

F#|--0--
B |--0--

(let this ring out into the main riff which you play 4 more times)


Altered Main Riff: (x4)

F#|--0--0--0--7--7--7--8--8--8--3--3--3--5--5--5--5--
B |--0--0--0--7--7--7--8--8--8--3--3--3--5--5--5--5--
    [P.M.---]


Last Chorus: (x4)

F#|--2--2--2--2--2---2------2--2--2--2------2--0---3--
B |--2--2--2--2--2---2------2--2--2--2------2--0---3--


That's pretty much it. Hopefully this will satisfy those looking for the whole song.





Comments


Popular 40 Below Summer tabs & chords
I'm So Ugly Bass Tabs
Training Day Bass Tabs
A Season In Hell Tabs
Better Life Tabs
Rain Tabs
Rejection 1 Tabs
Rope Tabs
Rope 1 Tabs
Self Medicate Tabs
Untied Tabs


Song lyrics



↑ Back to top | Tablatures and chords are parodies/interpretations of the original songs. You may use it for private study, scholarship, research or language learning purposes only
© 2014 AZChords.com Contact us | Privacy policy | DMCA | Add/correct tabs | Request tabs | Top 50 tabs