» » »

Rope Bass tabs (ver.1)

Artists:  A B C D E F G H I J K L M N O P Q R S T U V W X Y Z # 

Rope Bass tabs (ver.1)

40 Below Summer
Rating:
4/5 (2 votes)

Hard to play? Try these video lessons and learn fast.
                40 Below Summer - Rope

Intro/ Main Riff x8

|-------------------------------|
|-------------------------------|
|-------------------------------|
|-------------------------------|
|0-0-0-7-7-7-8-8-8-3-3-3-5-5-5-5|


Verse x8

|--------------------------------|
|--------------------------------|
|--------------------------------|
|--------------------------------|
|0-0-0-7-7-7-8------3-3-3-5-5-5-5|


Intro/ Main Riff x4

|-------------------------------|
|-------------------------------|
|-------------------------------|
|-------------------------------|
|0-0-0-7-7-7-8-8-8-3-3-3-5-5-5-5|


Chorus x4

|--------------------------------------|
|--------------------------------------|
|--------------------------------------|
|-------------------------------7~ ----|   
|2-2-2-2-2-2----2-2-2-2-2?2-0~---------|


Verse x8

|--------------------------------|
|--------------------------------|
|--------------------------------|
|--------------------------------|
|0-0-0-7-7-7-8------3-3-3-5-5-5-5|


Chorus x4

|--------------------------------------|
|--------------------------------------|
|--------------------------------------|
|-------------------------------7~ ----|   
|2-2-2-2-2-2----2-2-2-2-22-0~----------|


Bridge x6

|-------------------|
|-------------------|
|------0~ ----------|
|?2~ ----?3~ -------|
|0~ ---------0~ 3~ 3|   Last time play and hold 0 instead of 3's


Intro/ Main Riff x8

|-------------------------------|
|-------------------------------|
|-------------------------------|
|-------------------------------|
|0-0-0-7-7-7-8-8-8-3-3-3-5-5-5-5|


Chorus x8

|--------------------------------------|
|--------------------------------------|
|--------------------------------------|
|-------------------------------7~ ----|   
|2-2-2-2-2-2----2-2-2-2-2?2-0~   ------|
            
Hard to play? Try these video lessons and learn fast. | Correct




comments powered by Disqus
↑ Back to top | Tablatures and chords are parodies/interpretations of the original songs. You may use it for private study, scholarship, research or language learning purposes only