» » »

40 Below Summer, Rope Tabs (ver.2)

Artists:  A B C D E F G H I J K L M N O P Q R S T U V W X Y Z # 

Rope Tabs (ver.2)

40 Below Summer Tabs
Rating:
0/5 (0 votes)
Rope lessons Tabs too difficult? Try these video lessons and learn fast
                Intro (0:12)
|----------------------------|
|----------------------------|
|----------------------------|
|-000-777-888-333-5555-------|
|-000-777-888-333-5555-------|
|-000-777-888-333-5555-------|

Verse 1 (0:25) In this part of the verse only sounds the bass, except the two last notes

|------------------------|
|------------------------|
|------------------------|
|------------------------|
|-3333-555---------------|
|-3333-555---------------|

(0:35)
|----------------------|
|----------------------|
|----------------------|
|----------------------|
|-----999/10-333-5555--|
|-000-777/8--333-5555--|

Pre chorus (0:47)
|-------------------------|
|-------------------------|
|-------------------------|
|-000-777-888-333-5555----|
|-000-777-888-333-5555----|
|-000-777-888-333-5555----|

Chorus (1:00)
|-----------------------|
|-----------------------|
|-----------------------|
|-222222-22222-2-0---3--|
|-222222-22222-2-0---3--|
|-222222-22222-2-0---3--|

Verse 2 (1:23)
|----------------------|
|----------------------|
|----------------------|
|----------------------|
|----------------------|
|-0000-777-8-333-5555--|

(1:34)
|----------------------|
|----------------------|
|----------------------|
|----------------------|
|-----999/10-333-5555--|
|-000-777/8--333-5555--|

Chorus (1:48)
|-----------------------|
|-----------------------|
|-----------------------|
|-222222-22222-2-0---3--|
|-222222-22222-2-0---3--|
|-222222-22222-2-0---3--|

This is the break of the quiet part (2:44)
|----------------------------|
|----------------------------|
|----------------------------|
|-0--------------------------|
|-0--------------------------|
|-0--------------------------|

(2:50)
|---------------------------|
|---------------------------|
|---------------------------|
|-000-777-888-555-3333------|
|-000-777-888-555-3333------|
|-000-777-888-555-3333------|

(3:01)
|----------------------------|
|----------------------------|
|----------------------------|
|-0-x-x-777-888-555-3333-----|
|-0-x-x-777-888-555-3333-----|
|-0-x-x-777-888-555-3333-----|

Chorus (3:15)
|------------------------|
|------------------------|
|------------------------|
|-222222-22222-2-0---3---|
|-222222-22222-2-0---3---|
|-222222-22222-2-0---3---|

Ending (3:38)
|-----------------------------------|
|-----------------------------------|
|-----------------------------------|
|-2222222222222222-000000-33333333--|
|-2222222222222222-000000-33333333--|
|-2222222222222222-000000-33333333--|

(3:56)
|----------------------------|
|----------------------------|
|----------------------------|
|-2222222222222222-0-----3---|
|-2222222222222222-0-----3---|
|-2222222222222222-0-----3---|
            

comments powered by Disqus
↑ Back to top | 40 Below Summer Tabs for Rope. Lyrics for acoustic guitar and electric guitar. Tablatures and chords are parodies/interpretations of the original songs. You may use it for private study, scholarship, research or language learning purposes only