» » »

3rd Strike, No Light Tabs (ver.2)

Artists:  A B C D E F G H I J K L M N O P Q R S T U V W X Y Z # 

No Light Tabs (ver.2)

3rd Strike Tabs
Rating:
0/5 (0 votes)
No Light lessons Tabs too difficult? Try these video lessons and learn fast
                Tuning DADGBe

Start off with double open string palm mute

Intro/Chorus (Distortion)
E|--------------------------|
B|--------------------------|
G|-------6-6-6--------7-7-7-|
D|-------6-6-6--------7-7-7-|
A|--0-4--4-4-4---0-5--5-5-5-|
D|--0-4--4-4-4---0-5--5-5-5-|

verse (Clean w/Flange)
E|------------------|--------|----------------|
B|------------------|--------|----------------|
G|-------6-------6--|--------|-----6-----6----|
D|---------6--------|-2x then|-------6--------| 2x also
A|------------4-----|--------|---------0------|
D|--4---------------|--------|--0-------------|


Bridge: (Distortion)
E|----------------------------|						
B|----------------------------|
G|----------------------------|
D|----------------------------|
A|----------------------------|
D|---4-4-4-4-4-5--7--4-5-4-5--|

Interlude:  (Distortion on)
e|-----------------------------|
B|-----------------------------|
G|-----------------------------|
D|---4-4-4-4-4-5--7---4-5--4-5-|8x
A|---4-4-4-4-4-5--7---4-5--4-5-|
D|---4-4-4-4-4-5--7---4-5--4-5-|

Bridge 2: (Distortion On)
E|----------------------|
B|----------------------|
G|----------------------|
D|-4-0-4-0-7-0-2-0-5----|                  
A|-4-0-4-0-7-0-2-0-5----|
D|-4-0-4-0-7-0-2-0-5----|x4

Outro:
E|-------------------|
B|-------------------|
G|-------------------|
D|-44444-5-7-4-0~----|
A|-44444-5-7-4-0~----|
D|-44444-5-7-4-0~----|


This is the best I can come up with for now, please please send corrections
and post comments for this, please rate also, comments only
help guitar players get better!
            

comments powered by Disqus
↑ Back to top | 3rd Strike Tabs for No Light. Lyrics for acoustic guitar and electric guitar. Tablatures and chords are parodies/interpretations of the original songs. You may use it for private study, scholarship, research or language learning purposes only