>
 >
No Light

No Light Guitar Tabs

3rd Strike - No Light chords, tabs, tablatures, lyrics

Guitar lessons | Add/correct | Request | Top 50 tabs Artists:  A B C D E F G H I J K L M N O P Q R S T U V W X Y Z 0-9

No Light Guitar Tabs – 3rd Strike

CD, Sheet music, Poster

Do you like No Light? Share with your friends now
TabsTabs v2Tabs v3
Artist : 3rd Strike
Album  : Lost Angel
Song   : No Light
Tuning : Drop D

Intro
    Moderately Fast Rock Q=102
      C#5/F#                 D5/G
   4/4
    Gtrs I, II
    E E Q  +E  E S S S S   E E Q  +E  E S S S S
||-----------------------|----------------------|
||o----------------------|----------------------|
||------6--(6)---6-6-6-6-|-----7--(7)---7-7-7-7-|
||------6--(6)---6-6-6-6-|-----7--(7)---7-7-7-7-|
||o-----4--(4)---4-4-4-4-|-----5--(5)---5-5-5-5-|
||--0-4-4--(4)-4-4-4-4-4-|-0-5-5--(5)-5-5-5-5-5-|


    C#5/F#                 D5/G
  E E Q  +E  E S S S S   E E Q  +E  E S S S S
|----------------------|------------------------||
|----------------------|-----------------------o||
|-----6--(6)---6-6-6-6-|-----7--(7)---7-7-7-7---||
|-----6--(6)---6-6-6-6-|-----7--(7)---7-7-7-7---||
|-----4--(4)---4-4-4-4-|-----5--(5)---5-5-5-5--o||
|-0-4-4--(4)-4-4-4-4-4-|-0-5-5--(5)-5-5-5-5-5---||


 Pre-Verse              Verse
                         $
  C#5/F#                 F#m  C#m        F#m  C#m
  Gtrs III, IV
  W          W           Q.   Q  E E E   Q.   Q  E E E
|----------|----------||---------------|----------------|
|----------|----------||------5--------|------5---------|
|-6--------|-6--------||-2----6--------|-2----6---------|
|-6--------|-6--------||-4-------6-7-6-|-4-------6-7-6--|
|-4--------|-4--------||---------------|----------------|
|-4--------|-4--------||---------------|----------------|


    D    C#m        D    C#m        F#m  C#m        F#m  C#m
    Q.   Q  E E E   Q.   Q  E E E   Q.   Q  E E E   Q.   Q  E E E  3x
||----------------|---------------|---------------|----------------||
||o------5--------|------5--------|------5--------|------5--------o||
||-------6--------|------6--------|-2----6--------|-2----6---------||
||--0-------6-7-6-|-0-------6-7-6-|-4-------6-7-6-|-4-------6-7-6--||
||o---------------|---------------|---------------|---------------o||
||----------------|---------------|---------------|----------------||


  D    C#m                 F#5
  Gtrs I, II
  W                H.      S S E
                           | |
                           / /

  Gtrs III, IV
  Q.   Q  E E E   +W
|---------------|----------------||
|------5--------|----------------||
|------6--------|----------------||
|-0-------6-7-6-|-(6)------------||
|---------------|----------------||
|---------------|----------------||


   Chorus
      C#5/F#                 D5/G
    Gtrs I, II
    E E Q  +E  E S S S S   E E Q  +E  E S S S S
||-----------------------|----------------------|
||o----------------------|----------------------|
||------6--(6)---6-6-6-6-|-----7--(7)---7-7-7-7-|
||------6--(6)---6-6-6-6-|-----7--(7)---7-7-7-7-|
||o-----4--(4)---4-4-4-4-|-----5--(5)---5-5-5-5-|
||--0-4-4--(4)-4-4-4-4-4-|-0-5-5--(5)-5-5-5-5-5-|


                                        D.S.
    C#5/F#                 D5/G
  E E Q  +E  E S S S S   E E Q  +E  E S S S S
|----------------------|-------------------------||
|----------------------|------------------------o||
|-----6--(6)---6-6-6-6-|-----7--(7)---7-7-7-7----||
|-----6--(6)---6-6-6-6-|-----7--(7)---7-7-7-7----||
|-----4--(4)---4-4-4-4-|-----5--(5)---5-5-5-5---o||
|-0-4-4--(4)-4-4-4-4-4-|-0-5-5--(5)-5-5-5-5-5----||


   Interlude
    N.C.
    Gtr I
    S S S S S S E S S E S S S S  3x S S S S S S E H
||-------------------------------||--------------------||
||o-----------------------------o||--------------------||
||-------------------------------||--------------------||
||-------------------------------||--------------------||
||o-----------------------------o||--------------------||
||--4-4-4-4-4-5-7---4-5---2-4-0--||-4-4-4-4-4-5-7------||


    F#5       G5A5  F#G5  E5F#D5  F#5       G5A5  F#G5  E5F#D5
    Gtrs I, II
    S S S S S S E S S E S S S S   S S S S S S E S S E S S S S  4x
||------------------------------|------------------------------||
||o-----------------------------|-----------------------------o||
||------------------------------|------------------------------||
||--4-4-4-4-4-5-7---4-5---2-4-0-|-4-4-4-4-4-5-7---4-5---2-4-0--||
||o-4-4-4-4-4-5-7---4-5---2-4-0-|-4-4-4-4-4-5-7---4-5---2-4-0-o||
||--4-4-4-4-4-5-7---4-5---2-4-0-|-4-4-4-4-4-5-7---4-5---2-4-0--||


    F#D5F#D5A5  E5      G5  D5  F#D5F#D5A5  E5E5    G5  D5
    E S E S E S S E +S  S S S   E S E S E S S E +S  S S S
||----------------------------|----------------------------||
||o---------------------------|---------------------------o||
||----------------------------|----------------------------||
||--4-0-4-0-7---2-2-(2)-5-5-0-|-4-0-4-0-7---2-2-(2)-5-5-0--||
||o-4-0-4-0-7---2-2-(2)-5-5-0-|-4-0-4-0-7---2-2-(2)-5-5-0-o||
||--4-0-4-0-7---2-2-(2)-5-5-0-|-4-0-4-0-7---2-2-(2)-5-5-0--||


 Bridge
  C#5/F#                                     F#5
  Gtrs I, II
  W          W          W            H.      S S E
                                             | |
                                             / /

  Gtrs III, IV
             >
  W          W          Wx5          W
|----------|----------|------------|---------------||
|----------|----------|------------|---------------||
|-6--------|-6--------|------------|---------------||
|-6--------|-6--------|------------|---------------||
|-4--------|-4--------|------------|---------------||
|-4--------|-4--------|------------|---------------||


   Chorus
      C#5/F#                 D5/G
    Gtrs I, II
    E E Q  +E  E S S S S   E E Q  +E  E S S S S
||-----------------------|----------------------|
||o----------------------|----------------------|
||------6--(6)---6-6-6-6-|-----7--(7)---7-7-7-7-|
||------6--(6)---6-6-6-6-|-----7--(7)---7-7-7-7-|
||o-----4--(4)---4-4-4-4-|-----5--(5)---5-5-5-5-|
||--0-4-4--(4)-4-4-4-4-4-|-0-5-5--(5)-5-5-5-5-5-|


    C#5/F#                 D5/G
  E E Q  +E  E S S S S   E E Q  +E  E S S S S
|----------------------|-------------------------||
|----------------------|------------------------o||
|-----6--(6)---6-6-6-6-|-----7--(7)---7-7-7-7----||
|-----6--(6)---6-6-6-6-|-----7--(7)---7-7-7-7----||
|-----4--(4)---4-4-4-4-|-----5--(5)---5-5-5-5---o||
|-0-4-4--(4)-4-4-4-4-4-|-0-5-5--(5)-5-5-5-5-5----||


   Outro
    F#5       G5A5  F#G5  E5F#D5  F#5       G5A5  F#G5  E5F#D5
    S S S S S S E S S E S S S S   S S S S S S E S S E S S S S
||------------------------------|------------------------------||
||o-----------------------------|-----------------------------o||
||------------------------------|------------------------------||
||--4-4-4-4-4-5-7---4-5---2-4-0-|-4-4-4-4-4-5-7---4-5---2-4-0--||
||o-4-4-4-4-4-5-7---4-5---2-4-0-|-4-4-4-4-4-5-7---4-5---2-4-0-o||
||--4-4-4-4-4-5-7---4-5---2-4-0-|-4-4-4-4-4-5-7---4-5---2-4-0--||


    F#D5F#D5A5  E5      G5  D5
    E S E S E S S E +S  S S S
||----------------------------|
||o---------------------------|
||----------------------------|
||--4-0-4-0-7---2-2-(2)-5-5-0-|
||o-4-0-4-0-7---2-2-(2)-5-5-0-|
||--4-0-4-0-7---2-2-(2)-5-5-0-|


 1.                            2.
  F#D5F#D5A5  E5      G5  D5    F#5       G5A5D5
  E S E S E S S E +S  S S S     S S S S S S S S +H
|----------------------------||------------------------|
|---------------------------o||------------------------|
|----------------------------||------------------------|
|-4-0-4-0-7---2-2-(2)-5-5-0--||-4-4-4-4-4-5-7-0-(0)----|
|-4-0-4-0-7---2-2-(2)-5-5-0-o||-4-4-4-4-4-5-7-0-(0)----|
|-4-0-4-0-7---2-2-(2)-5-5-0--||-4-4-4-4-4-5-7-0-(0)----|


  +W           +W
|------------:--------*|
|------------:--------*|
|------------:--------*|
|-(0)--------:-(0)----*|
|-(0)--------:-(0)----*|
|-(0)--------:-(0)----*|
--------------------------------------------------------------------------------

Tablature Legend
----------------
 h   - hammer-on
 p   - pull-off
 b   - bend
 pb  - pre-bend
 r   - bend release (if no number after the r, then release immediately)
 /\  - slide into or out of (from/to "nowhere")
 s   - legato slide
 S   - shift slide
 - natural harmonic
[n]  - artificial harmonic
n(n) - tapped harmonic
 ~   - vibrato
 tr  - trill
 T   - tap
 TP  - trem. picking
 PM  - palm muting
\n/  - tremolo bar dip; n = amount to dip
 \n  - tremolo bar down
 n/  - tremolo bar up
/n\  - tremolo bar inverted dip
 =   - hold bend; also acts as connecting device for hammers/pulls
 <> - volume swell (louder/softer)
 x   - on rhythm slash represents muted slash
 o   - on rhythm slash represents single note slash





Comments


Popular 3rd Strike tabs & chords
No Light Ver Bass Tabs
Paranoid Bass Tabs
No Light 1 Tabs
No Light 2 Tabs
Paranoid Tabs
Redemption Tabs


Song lyrics



↑ Back to top | Tablatures and chords are parodies/interpretations of the original songs. You may use it for private study, scholarship, research or language learning purposes only
© 2014 AZChords.com Contact us | Privacy policy | DMCA | Add/correct tabs | Request tabs | Top 50 tabs