» » »

3rd Strike, No Light Bass tabs (ver.1)

Artists:  A B C D E F G H I J K L M N O P Q R S T U V W X Y Z # 

No Light Bass tabs (ver.1)

3rd Strike Tabs
 Rating:
4/5 (4 votes)
No Light lessons Tabs too difficult? Try these video lessons and learn fast
1
                "Intro/Chorus: 
G|--------------------------|--------------|
D|--------------------------|--0h2---------|
A|--------------------------|------0h2-----|
D|--0-4--4-4-4---0-5--5-5-5-|----------2h4-|
B|--------------------------|--------------|

Verses: 
G|-----------------------------------|
D|-----------------------------------|
A|----------16p15-----------15-15-16-| continued below
D|-15-15--15------18-1515-15---------|
B|-----------------------------------|

G|-----------------------------------|
D|-----------------------------------|
A|-----16---------------16-----------|
D|------------18/19------------18----|
B|-1414----14-------1414----14----14-|


Bridge: (Distortion)
G|----------------------------|
D|----------------------------|
A|----------------------------|
D|---4-4-4-4-4-5--7--4-5-4-5--|
B|----------------------------|

Bridge 2: 
G|----------------------|
D|----------------------|                  
A|----------------------|
D|-4-0-4-0-7-0-2-0-5----|x4
B|----------------------|

Outro:
G|-------------------|
D|-------------------|
A|-------------------|
D|-44444-5-7-450~----|
B|-------------------|
"            
Submit corrections

comments powered by Disqus
↑ Back to top | 3rd Strike Bass for No Light. Lyrics for acoustic guitar and electric guitar. 1 Tablatures and chords are parodies/interpretations of the original songs. You may use it for private study, scholarship, research or language learning purposes only