» » »

Don't Trust Me Bass tabs (ver.2)

Artists:  A B C D E F G H I J K L M N O P Q R S T U V W X Y Z # 

Don't Trust Me Bass tabs (ver.2)

3oh3
Rating:
0/5 (0 votes)

Hard to play? Try these video lessons and learn fast.
                
Intro (0:14)
|---0~------------|
|------1~----1~---|
|---------3~------|
|-----------------|

Chours (0:28)
|--0~----3~--2~-------|
|-----1~--------------|
|---------------------|x4
|---------------------|

(1:13)
|---0~------------|
|------1~----1~---|
|---------3~------|
|-----------------|

Chours (1:28)
|--0~----3~--2~-------|
|-----1~--------------|
|---------------------|x4
|---------------------|

Brindge (1:58)
|--0--|
|-----|
|-----|x11
|-----|

Repeat till end (2:19)
|---0~-----3~--2~-----|
|------1~-------------|
|---------------------|
|---------------------|
            
Hard to play? Try these video lessons and learn fast. | Correct




comments powered by Disqus
↑ Back to top | Tablatures and chords are parodies/interpretations of the original songs. You may use it for private study, scholarship, research or language learning purposes only