» » »

3oh3, Don't Trust Me Tabs (ver.2)

Artists:  A B C D E F G H I J K L M N O P Q R S T U V W X Y Z # 

Don't Trust Me Tabs (ver.2)

3oh3 Tabs
 Rating:
4/5 (4 votes)
Don't Trust Me lessons Tabs too difficult? Try these video lessons and learn fast
1
                -------------------------------------------------------------------------------
                             Dont Trust Me - 3oh!3
-------------------------------------------------------------------------------

Tuning: standard

Verse 1
e|-------6-5-------6-5-------6-5-------6-5------6-5------6-5----6-5------6-5|
b|--------------------------------------------------------------------------|
g|-----7---------7---------7---------7--------7--------7-------7--------7---|
d|-5-5-------5-5------------------------------------------------------------|
a|---------------------6-6-------6-6------------------------6-6-----6-6-----|
e|----------------------------------------8-8-------8-8---------------------|x2

Chorus 1
e|------------------------------------------|
b|-11111111111111-88888888-3333333----------|
g|-12121212121212-88888888-3333333-22222222-|
d|-12121212121212-88888888-3333333-33333333-|
a|-10101010101010-66666666-1111111-33333333-|
e|---------------------------------11111111-|x3

Fourth Time…
e|-------------------------------------------------------|
b|-11111111111111-88888888-15151515151515-10101010101010-|
g|-12121212121212-88888888-15151515151515-10101010101010-|
d|-12121212121212-88888888-15151515151515-10101010101010-|
a|-10101010101010-66666666-13131313131313-8-8-8-8-8-8-8--|
e|-------------------------------------------------------|x1

Verse 2
e|-------6-5-------6-5-------6-5-------6-5------6-5------6-5----6-5------6-5|
b|--------------------------------------------------------------------------|
g|-----7---------7---------7---------7--------7--------7-------7--------7---|
d|-5-5-------5-5------------------------------------------------------------|
a|---------------------6-6-------6-6------------------------6-6-----6-6-----|
e|----------------------------------------8-8-------8-8---------------------|x2

Chorus 2
e|------------------------------------------|
b|-11111111111111-88888888-3333333----------|
g|-12121212121212-88888888-3333333-22222222-|
d|-12121212121212-88888888-3333333-33333333-|
a|-10101010101010-66666666-1111111-33333333-|
e|---------------------------------11111111-|x3

Fourth Time…
e|-------------------------------------------------------|
b|-11111111111111-88888888-15151515151515-10101010101010-|
g|-12121212121212-88888888-15151515151515-10101010101010-|
d|-12121212121212-88888888-15151515151515-10101010101010-|
a|-10101010101010-66666666-13131313131313-8-8-8-8-8-8-8--|
e|-------------------------------------------------------|x1

Bridge
e|--------------------------------------|
b|--------------------------------------|
g|--------------------------------------|
d|--(Palm Mute)-------------------------|
a|-555555555555555555555555555555555555-|
e|-333333333333333333333333333333333333-|

e|----------------|
b|-11~-8~-15~-10~-|
g|-12~-8~-15~-10~-|
d|-12~-8~-15~-10~-|
a|-10~-6~-13~-8~~-|
e|----------------|x2

Chorus 3
e|------------------------------------------|
b|-11111111111111-88888888-3333333----------|
g|-12121212121212-88888888-3333333-22222222-|
d|-12121212121212-88888888-3333333-33333333-|
a|-10101010101010-66666666-1111111-33333333-|
e|---------------------------------11111111-|x3

Fourth Time…
e|-------------------------------------------------------|
b|-11111111111111-88888888-15151515151515-10101010101010-|
g|-12121212121212-88888888-15151515151515-10101010101010-|
d|-12121212121212-88888888-15151515151515-10101010101010-|
a|-10101010101010-66666666-13131313131313-8-8-8-8-8-8-8--|
e|-------------------------------------------------------|x1

Keep those hands crackin' in the 3oh!3!

| /  slide up
| \  slide down
| h  hammer-on
| p  pull-off
| ~  vibrato
| +  harmonic
| x  Mute note
===============================================================================
            
Submit corrections

comments powered by Disqus
↑ Back to top | 3oh3 Tabs for Don't Trust Me. Lyrics for acoustic guitar and electric guitar. 1 Tablatures and chords are parodies/interpretations of the original songs. You may use it for private study, scholarship, research or language learning purposes only