» » »

Don't Trust Me Bass tabs (ver.1)

Artists:  A B C D E F G H I J K L M N O P Q R S T U V W X Y Z # 

Don't Trust Me Bass tabs (ver.1)

3oh3
Rating:
0/5 (0 votes)
Tabs too difficult? Try these video lessons and learn fast.
                Don't Trust Me by 3Oh!3 Bass Tab


Verse (No bass until "T-t-t-tongues(Verse 1)/Br-br-br-bruises(Verse 2)")


G|-------------------------------------------|
D|-------------------------------------------|
A|-10-(x16)--6(x16)--3(x16)--6(x8)-5--10~----|
E|-------------------------------------------|

Chorus (On off-beats)

G|----------------------------------------------------|
D|----------------------------------------------------|
A|-10-10-10-10-6-6-6-6-13-13-13-13-8-8-8-8------------|
E|----------------------------------------------------| (x2)

("2nd Part" of Chorus):
G|--12--12--12--12--8-8-8-8---15--15--15--15--10-10-10-10------|
D|-------------------------------------------------------------|
A|10--10--10--10---6-6-6-6--13--13--13--13---8--8--8--8--------|
E|-------------------------------------------------------------| (x2)

Verse

Chorus

Bridge:

G|------------------------------------------|
D|------------------------------------------|
A|------------------------------------------|
E|--3--3--3--3--3--3--3--3-33--3--3---------|

Chorus (2nd Part only)x4

Chorus (Part 1 only)x1

That's pretty much it.
            
Tabs too difficult? Try these video lessons and learn fast.


comments powered by Disqus
↑ Back to top | Tablatures and chords are parodies/interpretations of the original songs. You may use it for private study, scholarship, research or language learning purposes only