>
 >
Story Of A Girl

Story Of A Girl Guitar Tabs

3 Doors Down - Story Of A Girl chords, tabs, tablatures, lyrics

Guitar lessons | Add/correct | Request | Top 50 tabs Artists:  A B C D E F G H I J K L M N O P Q R S T U V W X Y Z 0-9

Story Of A Girl Guitar Tabs – 3 Doors Down

CD, Sheet music, Poster

Do you like Story Of A Girl? Share with your friends now
ChordsTabsUkulele
-------------------------------------------------------------------------------
-------------------------------------------------------------------------------
Tuning: Standard

C9 (X32033)
G (320033)
A7sus4 (X02033)
D (XX0232)
Bm (X24432)
Em7 (02003X)
D/F# (2X023X)


CHORUS

            C9               G
This is the story of a girl
                      A7sus4                  D
Who cried a river and drowned the whole world
              Bm              C9
And while she looks so sad in photographs
  A7sus4
I absolutely love her
         G        D C9
When she smiles

G  D  C9



VERSE 1

    Bm                       C9
Now how many days in a year
    G            
She woke up with hope
             D
But she only found tears
    Bm                     C9
And I can be so insincere
G                   D    
Making her promises never for real
   Bm                                C9
As long as she stands there waiting
G                              D
Wearing the holes in the soles of her shoes
Bm                           C9
Now how many days disappear
         G
When you look in the mirror
   D
So how do you choose



BRIDGE

     Em7                   D/F#     
Your clothes never wear as well the next day
         G                   A7sus4
And your hair never falls in quite the same way
Em7               D/F#                      A7sus4
You never seem to run out of things to say



CHORUS

This is the story of a girl
Who cried a river and drowned the whole world
And while she looks so sad in photographs
I absolutely love her
When she smiles



VERSE 2

Now how many lovers would stay
Just to put up with this s**t 
Day after day
How did we wind up this way
Watchin' the mouths for the words I would say
As long as we stand here waiting
Wearing the clothes or the soles that we choose
How do we get there today
When we're walking too far for the price of the shoes



BRIDGE

Your clothes never wear as well the next day
And your hair never falls in quite the same way
But you never seem to run out of things to say



CHORUS

This is the story of a girl
Who cried a river and drowned the whole world
And while she looked so sad and lonely there
I absolutely love her
When she smiles



SOLO

e|---------------------------------------------------------------------------|
B|--15-----------------------------------------------------------------------|
G|--14/16-------12-----------------------------------------------------------|
D|----------------------14-------12------------------------------------------|
A|----------------------------------------14-------12-------10--------10-----|
E|---------------------------------------------------------------------------|


e|---------------------------------------------------------------------------|
B|---------------------------------------------------------------------------|
G|--16------17------17------17------16------14------14------12------14/16----|
D|---------------------------------------------------------------------------|
A|--14------15------15------15------14------12------12------10------12/14----|
E|---------------------------------------------------------------------------|


e|---------------------------------------------------------------------------|
B|---------------------------------------------------------------------------|
G|--12-----12-----12-----12-----14-----14-----12-----12----------------------|
D|---------------------------------------------------------------------------|
A|--10-----10-----10-----10-----12-----12-----10-----10----------------------|
E|---------------------------------------------------------------------------|


e|---------------------------------------------------------------------------|
B|---------------------------------------------------------------------------|
G|--12-----12-----12-----12-----14-----16-----16-----14-----12---------------|
D|---------------------------------------------------------------------------|
A|--10-----10-----10-----10-----12-----14-----14-----12-----10---------------|
E|---------------------------------------------------------------------------|


e|--15-----15-----15-----15--------------------------------------------------|
B|--------------------------------17------17-------15-------15/17------------|
G|--12-----12-----12-----12--------------------------------------------------|
D|--------------------------------14------14-------12-------12/14------------|
A|---------------------------------------------------------------------------|
E|---------------------------------------------------------------------------|


e|--15-----15-----15-----15-----15-----15-----15-----15----------------------|
B|----------------------------------------------------------17-----15--------|
G|--12-----12-----12-----12-----12-----12-----12-----12----------------------|
D|----------------------------------------------------------14-----12--------|
A|---------------------------------------------------------------------------|
E|---------------------------------------------------------------------------|


e|---------------------------------------------------------------------------|
B|--15~---15----------15----15----15-----------------------------------------|
G|--14~---12----------12----14----12----12-----------------------------------|
D|--------------14------------------------------14-----12--------------------|
A|-----------------------------------------------------------14-----12----10-|
E|---------------------------------------------------------------------------|


e|---------------------------------------------------------------------------|
B|--8---8---8---8---10---10---8---8---8---8---8---10---10/12---12---10---8---|
G|---------------------------------------------------------------------------|
D|--5---5---5---5---7----7----5---5---5---5---5---7----7/9-----9----7----5---|
A|---------------------------------------------------------------------------|
E|---------------------------------------------------------------------------|


e|--15----15----15----15----12----12----10----10/12--------------------------|
B|---------------------------------------------------------------------------|
G|--12----12----12----12----9-----9-----7-----7/9----------------------------|
D|---------------------------------------------------------------------------|
A|---------------------------------------------------------------------------|
E|---------------------------------------------------------------------------|


e|--15---15---15---15---15---15---9---7--------------------------------------|
B|---------------------------------------------------------------------------|
G|--12---12---12---12---12---12---12--10---14/16/14---12--------12---14---12-|
D|---------------------------------------------------------14----------------|
A|---------------------------------------------------------------------------|
E|---------------------------------------------------------------------------|



BRIDGE

While your clothes never wear as well the next day
And your hair never falls in quite the same way
You never seem to run out of things to say



CHORUS

This is the story of a girl
Who cied a river and drowned the whole world
And while she looks so sad in photographs
I absolutely love her...



CHORUS

This is a story of a girl
Her pretty face she hid from the world
And while she looks so sad and lonely there
I absolutely love her...



CHORUS

This is the story of a-- girl
Who cried a river and drowned the whole world
And while she looks so sad in photographs
I absolutely love her
When she smiles

When she smiles!





Comments


Popular 3 Doors Down tabs & chords
Kryptonite 3 Chords
She Dont Want The World 2 Chords
Away From The Sun (Intro) Tabs
Let Me Go 1 Tabs
Life Of My Own Tabs
My World 2 Tabs
When I'm Gone 16 Tabs
When Im Gone Rythm Part Tabs
Its Not Me Ukulele
My World Ukulele


Song lyrics



↑ Back to top | Tablatures and chords are parodies/interpretations of the original songs. You may use it for private study, scholarship, research or language learning purposes only
© 2014 AZChords.com Contact us | Privacy policy | DMCA | Add/correct tabs | Request tabs | Top 50 tabs