» » »

3 Doors Down, Round And Round Tabs (ver.1)

Artists:  A B C D E F G H I J K L M N O P Q R S T U V W X Y Z # 

Round And Round Tabs (ver.1)

3 Doors Down Tabs
 Rating:
4/5 (4 votes)
Round And Round lessons Tabs too difficult? Try these video lessons and learn fast
                
ROUND AND ROUND

Standard Tuning!

Enjoy!


INTRO: Play along with Guitar 2
Guitar 1
E--------------------------------|
B------0-----0---0-----0-----0---|
G---2-----2---2-----2-----2---2--|
D-----0--0--0--0---0--0--0--0--0-|
A--------------------------------|
E--------------------------------|

Guitar 2
E--------------------------------|
B--------------3-2--0--3-2--0--3-|
G--------------------------------|
D--------------------------------|
A--------------------------------|
E--------------------------------|

Guitar 1
E---------------------------------|
B-0-----0-----0---0-----0-----0---|
G----2-----2---2-----2-----2---2--|
D---0--0--0--0--0---0--0--0--0--0-|
A---------------------------------|
E---------------------------------|

Guitar 2
E-0-------------------------------|
B----3--2-3--2----0-X0-X0-X0-X0-0-|
G---------------2-----------------|
D---------------------------------|
A---------------------------------|
E---------------------------------|


VERSE 1: (0:15)
Guitar 1
E--------------------------------|
B------0-----0---0-----0-----0---|
G---2-----2---2-----2-----2---2--|
D-----0--0--0--0---0--0--0--0--0-|
A--------------------------------|
E--------------------------------|
There's one..    There's one..

Guitar 2
E--------------------------------|
B--------------3-2--0--3-2--0--3-|
G--------------------------------|
D--------------------------------|
A--------------------------------|
E--------------------------------|

Guitar 1
E--------------------------------|
B------0-----0---0-----0-----0---|
G---2-----2---2-----2-----2---2--|
D-----0--0--0--0---0--0--0--0--0-|
A--------------------------------|
E--------------------------------|
  One who..      There's one..


Guitar 2
E-0-------------------------------|
B----3--2-3--2----0-X0-X0-X0-X0-0-|
G---------------2-----------------|
D---------------------------------|
A---------------------------------|
E---------------------------------|

Guitar 1
E--------------------------------|
B------0-----0---0-----0-----0---|
G---2-----2---2-----2-----2---2--|
D-----0--0--0--0---0--0--0--0--0-|
A--------------------------------|
E--------------------------------|
  There's one..  There's one..

Guitar 2
E--------------------------------|
B--------------3-2--0--3-2--0--3-|
G--------------------------------|
D--------------------------------|
A--------------------------------|
E--------------------------------|

Guitar 1
E-----------------|
B-----0-----0-----|
G--2-----2---2----|
D----0--0--0--0---|
A-----------------|
E-----------------|
  There's one..

Guitar 2
E-0---------------|
B----3--2-3--2----|
G---------------2-|
D-----------------|
A-----------------|
E-----------------|

E-----------------------|
B-----3-------3-3-----3-|
G-2-X-2-X-2-X-2-2-2-X-2-|
D-2-X-0-X-2-X-0-0-2-X-0-| (0:42)
A-0-X---X-0-X-----0-X---|
E-----------------------|
  Make the alibis!

CHORUS 1: (0:45)
Guitar 2
E-----------------------------------------------------------------|
B-----------------------------------------------------------------|
G-4-4-4-4-4-4-4-4-4-4-4-4-4-4-4-4---------------------------------|
D-4-4-4-4-4-4-4-4-4-4-4-4-4-4-4-4-5-5-5-5-5-5-5-5-5-5-5-5-5-5-5-5-|
A-2-2-2-2-2-2-2-2-2-2-2-2-2-2-2-2-5-5-5-5-5-5-5-5-5-5-5-5-5-5-5-5-|
E---------------------------------3-3-3-3-3-3-3-3-3-3-3-3-3-3-3-3-|
  Round and round..               Go..

Guitar 1
E--------------------------------|
B------0-----0---0-----0-----0---|
G---2-----2---2-----2-----2---2--|
D-----0--0--0--0---0--0--0--0--0-|
A--------------------------------|
E--------------------------------|
 
Guitar 2
E---------------------------------|
B---------------------------------|
G-2-2-2-2-2-2-2-2-2-2-2-2-2-2-2-2-|
D-2-2-2-2-2-2-2-2-2-2-2-2-2-2-2-2-|
A-0-0-0-0-0-0-0-0-0-0-0-0-0-0-0-0-|
E---------------------------------|
  Where we're gonna..

Guitar 1
E-----------------|
B-0-----0-----0---|
G----2-----2---2--|
D---0--0--0--0--0-|
A-----------------|
E-----------------|

Guitar 1
E---------------------|
B-----3-------3-----3-|
G-2-X-2-X-2-X-2-X-2-2-|
D-2-X-0-X-2-X-0-X-2-0-|
A-0-X---X-0-X---X-0---|
E---------------------|


VERSE 2: (1:00) (Repeat Verse 1)

CHORUS 2: (1:29) (Repeat Chorus but play 2 times)

BRIDGE: (1:59) (Repeat Verse 1)

CHORUS 3: (2:29) (Repeat Chorus 2 but play 3 times)


End with this: (3:29)
E---|
B---|
G-4-|
D-4-|
A-2-|
E---|

Thank you!
            
Submit corrections

comments powered by Disqus
↑ Back to top | 3 Doors Down Tabs for Round And Round. Lyrics for acoustic guitar and electric guitar. Tablatures and chords are parodies/interpretations of the original songs. You may use it for private study, scholarship, research or language learning purposes only