>
 >
Right Where I Belong

Right Where I Belong Bass Tabs

3 Doors Down - Right Where I Belong chords, tabs, tablatures, lyrics

Guitar lessons | Add/correct | Request | Top 50 tabs Artists:  A B C D E F G H I J K L M N O P Q R S T U V W X Y Z 0-9

Right Where I Belong Bass Tabs – 3 Doors Down

CD, Sheet music, Poster

Do you like Right Where I Belong? Share with your friends now
Bass TabsTabsTabs v2Tabs v3Tabs v4
---------------------------------------------------------------------------------
     Right Where I Belong – 3 Doors Down
---------------------------------------------------------------------------------

This is my first tab (bet you haven’t heard that one before, right?).
I didn't tab for tempo and/or spacing, so you're going to have to figure that out.
Let me know what you think.  Hope this helps!


Tuning: Standard (E A D G)


Intro
     Songs opens with guitar riff first.
     First note is played short.  The rest let ring.
G|---------------------------------------------------------------------|
D|---------------------------------------------------------------------|
A|---------------------------------------------------------------------|
E|--5------------3-------------5-------------5-------------/8----------|

Verse
						                   (Repeat twice)
G|-------------------------------------------------------------------|
D|--5-7-5-7-5-7-----------------------5-7-5-7-5-7--------------------|
A|0----0---0----0-3-5-0-5-6--------0-----0-----0---0-3-5-0-5h6p5-3---|
E|-------------------------------------------------------------------|
						                   (Last time through)
G|-------------------------------------------------------------------|
D|--5-7-5-7-5-7-----------------------5-7-5-7-5-7--------------------|
A|0----0---0----0-3-5-0-5-6--------0-----0-----0---------------------|
E|-------------------------------------------------------------------|

Chorus

G|---------------------------------------------------------------|
D|---------------------------------------------------------------|
A|-------------3-3---6p5-5---------------3-3---5h6-5-3-0-5-------|
E|--3---5-5---------------------3---5-5--------------------------|

G|---------------------------------------------------------------|
D|---------------------------------------------------------------|
A|-------------3-3---6p5-5---------------3---3-3-3-3-3-3-3-------|
E|--3---5-5---------------------3---5-5--------------------------|

G|---------------------------------------------------------------|
D|---------------------------------------------------------------|
A|-------------3-3---6p5-5---------------3-3---5h6-5-3-0-5-------|
E|--3---5-5---------------------3---5-5--------------------------|

G|---------------------------------------------------------------|
D|---------------------------------------------------------------|
A|-------------3-3---6p5-5---------------3-----------------------|
E|--3---5-5---------------------3---5----------------------------|

Pre-Verse

G|------------------------------------------------------------------|
D|------------------------------------------------------------------|
A|------------------------------------------------------------------|
E|----5------------5----3----5-----------5------------/8------------|

Bass Solo?

G|------------------------------------------------------------------|
D|------------------------------------------------------------------|
A|------------------------------------------------------------------|
E|----5------------8---8---5-------8---8---5-------8---8---5--------|


Song Order

Intro
Verse
Chorus
Pre-Verse
Verse
Chorus
Bass Solo
Chorus

| /  slide up
| \  slide down
| h  hammer-on
| p  pull-off
| ~  vibrato
| +  harmonic
| x  Mute note
==========================================================





Comments


Popular 3 Doors Down tabs & chords
Kryptonite 5 Bass Tabs
Be Somebody 1 Chords
Down Poison 1 Chords
Its Not Me Chords
Changes Intro 1 Tabs
Going Down In Flames 5 Tabs
Here Without You 3 Tabs
Running Out Of Days Tabs
She Is Love Tabs
When Im Gone 3 Tabs


Song lyrics



↑ Back to top | Tablatures and chords are parodies/interpretations of the original songs. You may use it for private study, scholarship, research or language learning purposes only
© 2014 AZChords.com Contact us | Privacy policy | DMCA | Add/correct tabs | Request tabs | Top 50 tabs