>
 >
Pages

Pages Guitar Tabs

3 Doors Down - Pages chords, tabs, tablatures, lyrics

Guitar lessons | Add/correct | Request | Top 50 tabs Artists:  A B C D E F G H I J K L M N O P Q R S T U V W X Y Z 0-9

Pages Guitar Tabs – 3 Doors Down

CD, Sheet music, Poster

Do you like Pages? Share with your friends now
ChordsChords v2TabsUkulele
----------------------------------------------------------------------------
----------------------------------------------------------------------------

Tuning:Dropped C
(Low to High) C-G-C-F-A-D
3 doors down doesnīt usually use this tuning but for the last album, the band uses it a 
examples are citizen soldier, train and this one.


Intro and Verses:

D|--------------|------------|--------------|------------|
A|--------------|---1--------|--------------|------------|
F|----------3---|--------2---|----------0---|--------2---|
C|-----5--------|------------|-----1--------|---3--------|
G|---5----------|------------|---1----------|------------|
C|-5------------|------------|-1------------|------------|

D|--------------|----------------|--------------|----------------|
A|--------------|----------------|--------------|----------------|
F|----------3---|---5--5-7-5-2---|----------3---|---0---3-2-0----|
C|-----5--------|----------------|-----1--------|-----0-------3--|
G|---5----------|----------------|---1----------|----------------|
C|-5------------|----------------|-1------------|----------------|


Prechorus:

For the prechorus just strum the next chords

     D# - C# - D# - C# - D#

Thereīs another guitar but i havenīt figured out it yet


Chorus:

I put the lyrics to serve as a guide
You have to change the chord when you see a capital letter

You can SEE that......               is BLEEDING

D|------------------------------------------------------------------|
A|------------------------------------------------------------------|
F|------------------------------------------------------------------|
C|--------5-3h5-5-5--3h5-5-5--3h5-5-5--3--1---1-1--1--x--3-x-x-3-x--|
G|--------5-3h5-5-5--3h5-5-5--3h5-5-5--3--1---1-1--1--x--3-x-x-3-x--|
C|--------5-3h5-5-5--3h5-5-5--3h5-5-5--3--1---1-1--1--x--3-x-x-3-x--|


see your FEELINGS.....           and WANDER through my...


D|-------------------------------------------------------------|
A|-------------------------------------------------------------|
F|-------------------------------------3--3-3--3---5--5-5--5---|
C|--------5-3h5-5-5--3h5-5-5--3h5-5-5--3--3-3--3---5--5-5--5---|
G|--------5-3h5-5-5--3h5-5-5--3h5-5-5--1--1-1--1---3--3-3--3---|
C|--------5-3h5-5-5--3h5-5-5--3h5-5-5--------------------------|


     ...heart                  You see THROUGH me

D|------------------------------------------------------------------|
A|------------------------------------------------------------------|
F|------------------------------------------------------------------|
C|--------5-3h5-5-5--3h5-5-5--3h5-5-5--3--1---1-1--1--x--3-x-x-3-x--|
G|--------5-3h5-5-5--3h5-5-5--3h5-5-5--3--1---1-1--1--x--3-x-x-3-x--|
C|--------5-3h5-5-5--3h5-5-5--3h5-5-5--3--1---1-1--1--x--3-x-x-3-x--|


 only CONSUMES me                and WATCH   me   fall     apart


D|-------------------------------------------------------------|
A|-------------------------------------------------------------|
F|-------------------------------------3--3-3--3---5--5-5--5---|
C|--------5-3h5-5-5--3h5-5-5--3h5-5-5--3--3-3--3---5--5-5--5---|
G|--------5-3h5-5-5--3h5-5-5--3h5-5-5--1--1-1--1---3--3-3--3---|
C|--------5-3h5-5-5--3h5-5-5--3h5-5-5--------------------------|


end with:

D|-----|
A|-----|
F|-----|
C|--5--|
G|--5--|
C|--5--|

Bridge (Solo)

iI havenīt figured out the solo yet

faaaaaaall           aaapaaaaaart

D|-----------------------------------------------------------|
A|-----------------------------------------------------------|
F|--5--5--5--5--5--5----5-----8-8---8-8----5-5---5-5--5------|
C|--5--5--5--5--5--5----5-----8-8---8-8----5-5---5-5--5------|
G|--3--3--3--3--3--3----3-----6-6---6-6----3-3---3-3--3------|
C|-----------------------------------------------------------|


D|----------------------------------------------------------------|
A|----------------------------------------------------------------|
F|---------------------------------8-8---8-8----5-5---5-5--5------|
C|--5-5---5-5---5-5---5-5---5-5----8-8---8-8----5-5---5-5--5------|
G|--5-5---5-5---5-5---5-5---5-5----6-6---6-6----3-3---3-3--3------|
C|--5-5---5-5---5-5---5-5---5-5-----------------------------------|

As I Fall apart....

D|----------------------------------------------------------------|
A|----------------------------------------------------------------|
F|---------------------------------8-8---8-8----5-5---5-5--5------|
C|--5-5---5-5---5-5---5-5---5-5----8-8---8-8----5-5---5-5--5------|
G|--5-5---5-5---5-5---5-5---5-5----6-6---6-6----3-3---3-3--3------|
C|--5-5---5-5---5-5---5-5---5-5-----------------------------------|

D|----------------------------------------------------------------|
A|----------------------------------------------------------------|
F|---------------------------------8-8---8-8----5-5---5-5--5------|
C|--5-5---5-5---5-5---5-5---5-5----8-8---8-8----5-5---5-5--5------|
G|--5-5---5-5---5-5---5-5---5-5----6-6---6-6----3-3---3-3--3------|
C|--5-5---5-5---5-5---5-5---5-5-----------------------------------|

D|----------------------|
A|----------------------|
F|----------------------|
C|--5-5---5-5---5-5-5---|
G|--5-5---5-5---5-5-5---|
C|--5-5---5-5---5-5-5---|


Chorus Again

Outro:

faaall  apaaart

D|------------------------------------------------------------------------|
A|------------------------------------------------------------------------|
F|------------------------------------------------------------------------|
C|---------3h5--5h7--7h8--8h10---1h3--3h5--5h7--8p7---3h5--5h7--7h8--8h10-|
G|---------3h5--5h7--7h8--8h10---1h3--3h5--5h7--8p7---3h5--5h7--7h8--8h10-|
C|---------3h5--5h7--7h8--8h10---1h3--3h5--5h7--8p7---3h5--5h7--7h8--8h10-|

                end on:

D|------------------------|
A|------------------------|
F|------------------------|
C|--1--x-x-x-x--1-x-x--3--|
G|--1--x-x-x-x--1-x-x--3--|
C|--1--x-x-x-x--1-x-x--3--|


| /  slide up
| \  slide down
| h  hammer-on
| p  pull-off
| ~  vibrato
| +  harmonic
| x  Mute note


i hope you like it!!
it really took me a lot of time to figure this tab because the distortion on the chorus 
let me

===============================================================================





Comments


Popular 3 Doors Down tabs & chords
Going Down In Flames 1 Chords
Its Not My Time Chords
Kryptonite Chords
Let Me Go 3 Chords
Away From The Sun 4 Tabs
Believer 1 Tabs
The Road I'm On Tabs
When I'm Gone 16 Tabs
Let Me Be Myself Ukulele
Loser Ukulele


Song lyrics



↑ Back to top | Tablatures and chords are parodies/interpretations of the original songs. You may use it for private study, scholarship, research or language learning purposes only
© 2014 AZChords.com Contact us | Privacy policy | DMCA | Add/correct tabs | Request tabs | Top 50 tabs