» » »

I Wont Be That Way Tabs (ver.1)

Artists:  A B C D E F G H I J K L M N O P Q R S T U V W X Y Z # 

I Wont Be That Way Tabs (ver.1)

3 Doors Down
Rating:
0/5 (0 votes)

Hard to play? Try these video lessons and learn fast.
                e---0-0-0-0-0-3-3-2-0-----------------0-0-0-0-0-3-3-2-5---------------------|
B--------------------1-1-1-1-0-0-1-3--------------------1-1-1-1-0-0-1-3-----|
G---------------------------------------------------------------------- X 2-|
D---------------------------------------------------------------------------|
A---------------------------------------------------------------------------|
E---------------------------------------------------------------------------|

e-------------------------------------------|
B-------------------------------------------|
G-------------------------------------------| X 4
D--7\9-9-9-9-5-4-4-4\5--7\9-9-9-9-5-4-4-4\5-|
A--5\7-7-7-7-3-2-2-2\3--5\7-7-7-7-3-2-2-2\3-|
E-------------------------------------------|

e-------------------------------------------|
B-------------------------------------------|
G-------------------------------------------|
D--9-4-5-2----9-4-5-2----9-4-5-2----9-4-5-2-|
A--7-2-3-0----7-2-3-0----7-2-3-0----7-2-3-0-|
E-------------------------------------------|

e-------------------------------------------|
B-------------------------------------------|
G-------------------------------------------| X 4
D--7\9-9-9-9-5-4-4-4\5--7\9-9-9-9-5-4-4-4\5-|
A--5\7-7-7-7-3-2-2-2\3--5\7-7-7-7-3-2-2-2\3-|
E-------------------------------------------|

e-------------------------------------------|
B-------------------------------------------|
G-------------------------------------------|
D--9-4-5-2----9-4-5-2----9-4-5-2----9-4-5-2-|
A--7-2-3-0----7-2-3-0----7-2-3-0----7-2-3-0-|
E-------------------------------------------|

e-0--3-2-3-2---0---3-2-3-2-5-3--3-2-3-2---0-|
B------------3--------------------------3---|
G-------------------------------------------| X 2
D-------------------------------------------|
A-------------------------------------------|
E-------------------------------------------|

e-------------------------------------------|
B-------------------------------------------|
G-------------------------------------------| X 4
D--7\9-9-9-9-5-4-4-4\5--7\9-9-9-9-5-4-4-4\5-|
A--5\7-7-7-7-3-2-2-2\3--5\7-7-7-7-3-2-2-2\3-|
E-------------------------------------------|

e-------------------------------------------|
B-------------------------------------------|
G-------------------------------------------|
D--9-4-5-2----9-4-5-2----9-4-5-2----9-4-5-2-|
A--7-2-3-0----7-2-3-0----7-2-3-0----7-2-3-0-|
E-------------------------------------------|
            
Hard to play? Try these video lessons and learn fast. | Correct




comments powered by Disqus
↑ Back to top | Tablatures and chords are parodies/interpretations of the original songs. You may use it for private study, scholarship, research or language learning purposes only