>
 >
Give It To Me

Give It To Me Guitar Tabs

3 Doors Down - Give It To Me chords, tabs, tablatures, lyrics

Guitar lessons | Add/correct | Request | Top 50 tabs Artists:  A B C D E F G H I J K L M N O P Q R S T U V W X Y Z 0-9

Give It To Me Guitar Tabs – 3 Doors Down

CD, Sheet music, Poster

Do you like Give It To Me? Share with your friends now
Tabs
Album:3 Doors Down

For any comments,questions or suggestions,just post a comment or PM me.

Pilipino Rules!!Mabuhay ang Pilipinas,,,haha!!!!

Gtr.Legends:
/ - slide
h - hammer-on
~ - let it ring
x - scratching

Gtr.Tuning:Standard(Normal)

Intro:
e|------------------------------------------------|
B|------------------------------------------------|
G|-------66-xx-8888-88-----------------66-xx-8~---|
D|-88-xx-66-xx-8888-88----6h8----88-xx-66-xx-8~---|
A|-88-xx-44-xx-6666-66-6h8-------88-xx-44-xx-6~---|
E|-66-xx-------------------------66-xx------------|

Verse 1:It feels like something...
e|------4~---4~---6~---|
B|------4~---4~---6~---|
G|-6~---6~---5~---8~---| 4x
D|-8~---6~---6~---8~---|
A|-8~---4~---6~---6~---|
E|-6~--------4~--------|

Chorus:Come on wait a minute...
e|---------------------------------------------------------|
B|---------------------------------------------------------|
G|-------66-xx-8888-88------------------66-xx-888-666------|
D|-88-xx-66-xx-8888-88-----6h8----88-xx-66-xx-888-666-8~---|
A|-88-xx-44-xx-6666-66-6h8--------88-xx-44-xx-666-444-8~---|
E|-66-xx--------------------------66-xx---------------6~---|

Pre-Verse 2:
e|------4444-4444-666--------4444-6~---|
B|------4444-4444-666--------4444-6~---|
G|-6666-6666-5555-888---6666-6666-8~---|
D|-8888-6666-6666-888---8888-6666-8~---|
A|-8888-4444-6666-666---8888-4444-6~---|
E|-6666------4444-------6666-----------|

Verse 2:There's always something...
Play Verse 1

Chorus 2:Come on wait a minute...
e|-----------------------------      -----------------------|
B|-----------------------------      -----------------------|
G|-------66-xx-8888-88--------- 3x   --------66-xx-888-6~---|
D|-88-xx-66-xx-8888-88----6h8-- Then --88-xx-66-xx-888-6~---|
A|-88-xx-44-xx-6666-66-6h8-----      --88-xx-44-xx-666-4~---|
E|-66-xx-----------------------      --66-xx----------------|

Bridge prt.1:
Gtr.1
e|----------      ------|
B|----------      ------|
G|----8888-- 3x   ------|
D|-88-8888-- Then -8~---|
A|-88-6666--      -8~---|
E|-66-------      -6~---|

Gtr.2
e|-------------------|
B|-------------------|
G|-------6b-8/10-8---| Repeat many times...
D|-8-6------8/10-8---| Listen carefully...
A|-----8-------------|
E|-------------------|

Bridge prt.2:Ohh just give it time...

Bass then gtr. will enter:Come on wait a minute,,,
e|------4~---4~---6~---|
B|------4~---4~---6~---|
G|-6~---6~---5~---8~---| 2x
D|-8~---6~---6~---8~---|
A|-8~---4~---6~---6~---|
E|-6~--------4~--------|

Repeat Chorus 2:

Outro:Play Bridge

then
e|-----------------|
B|-----------------|
G|-8~---6666-------|
D|-8~---6666--8\---|
A|-6~---4444--8\---|
E|------------6\---|

End...


Give it to Me Lyrics:

Verse 1:
It feels like something got in the way
And maybe i had something to do with it
There's not much that i can say
But there sure is something i've got to prove to you
I told you, that i'd try
And you said that i lie
Like i have something to sell

Chorus:
Come on wait a minute
You think i've been in this
For a little while
But now come on baby, please
I've been on my knees for a long time
So come on, give it to me

Just give it to me

Verse 2:
There's always something i wanna say
But the words won't never come out
The way i want
Maybe i see another way
Or maybe i just see somethin you don't
These stories that you tell
Now i know them a little too well
You think i'll take what i want
Oh no

Chorus 2:
Come on wait a minute
You think i've been in this
For a little while
But now come on baby, please
I've been on my knees for a long time
Come on, give it to me
One more wrong will make it right
I don't wanna fight no more
I'm tired of sayin' please
This is all i need
So give me just a little bit
A little bit more

Bridge:
Oh, give me just a little bit more

Come on wait a minute
You think i've been in this
For a little while
But now come on baby, please
I've been on my knees for a long time

Come on wait a minute
You think i've been in this
For a little while
But now come on baby, please
I've been on my knees for a long time
Come on, give it to me
One more wrong will make it right
I don't wanna fight no more
I'm tired of sayin' please
This is all i need
So give me just a little bit
A little bit more
Oh, give me just a little bit more
Give me just a little bit more
Little bit more





Comments


Popular 3 Doors Down tabs & chords
Down Posion 2 Bass Tabs
Away From The Sun 1 Chords
Be Like That Correct Intro Tabs
Fathers Son Intro Tabs
Kryptonite Tabs
Kryptonite 2 Tabs
Pop Song Tabs
When I'm Gone 14 Tabs
Citizen Soldier Ukulele
Loser Ukulele


Song lyrics



↑ Back to top | Tablatures and chords are parodies/interpretations of the original songs. You may use it for private study, scholarship, research or language learning purposes only
© 2014 AZChords.com Contact us | Privacy policy | DMCA | Add/correct tabs | Request tabs | Top 50 tabs