» » »

3 Doors Down, Away From The Sun Tabs (ver.6)

Artists:  A B C D E F G H I J K L M N O P Q R S T U V W X Y Z # 

Away From The Sun Tabs (ver.6)

3 Doors Down Tabs
Rating:
3/5 (5 votes)
Away From The Sun lessons Tabs too difficult? Try these video lessons and learn fast
                
         
 

Guitar 1:  Clean Acoustic
Guitar 2:  Electric, light distortion
 

  F  Am7  C   G
|-x---x---x---0-|
|-1---1---1---1-|
|-2---0---0---0-|
|-3---2---2---0-|
|-x---x---3---2-|
|-x---x---x---3-|

This is one of my favorite songs and one that the ladies love. Enjoy!
 
[INTRO + VERSE]
[3x] 
   (1)     (2)     (3)     (4)     (1)     (2)     (3)     (4)
    F              Am7              C
||----------------------------------------------------------------0-|
||----1-----1-----1---1-----0h1-------1-----1-----1---1-----0---3---|
||------0-----0---------0-------0-------0-----0---------0-----0-----|
||--3-----3-----3---2-----2-------0-------2-----2---------0---------|
||----------------------------------3---------------2---------------|
||------------------------------------------------------------------|
          
   




   (1)     (2)     (3)     (4)     (1)     (2)     (3)     (4)
    F              Am7              G                          
||------------------------------------------------------------------|
||----1-----1-----1---1-----0h1-------3---1---0-------3---1---0---1-|
||------0-----0---------0-------0-------0---0---0-------0---0---0---|
||--3-----3-----3---2-----2-------0---------------------------------|
||------------------------------------------------------------------|
||----------------------------------3-------------3-3---------------|
 
[Chorus #1] - Guitar #2
 For the second guitar, on the last eighth note of each verse, give two sixteenth
note palm mutes before you start playing the chorus.

   (1)     (2)     (3)     (4)     (1)     (2)     (3)     (4)
    F5      (palm mute)             F5              C
||------------------------------------------------------------------|
||------------------------------------------------------------------|
||----------------------0-----0-------------------------0-----------|
||--3-----3-----x-x---0-----0-------3-----3-----3---2-3---0---------|
||--3-----3-----x-x-3-----2-----3---3-----3-----3-------------3---0-|
||--1-----1-----x-x-----------------1-----1-----1-------------------|
 
   (1)     (2)     (3)     (4)     (1)     (2)     (3)     (4) 
    F5      (palm mute)             F5              C
||------------------------------------------------------------------|
||------------------------------------------------------------------|
||----------------------0-----0-------------------------------------|
||--3-----3-----x-x---0-----0-------3-----3-----3-------0-----------|
||--3-----3-----x-x-3-----2-----3---3-----3-----3---2-3-------------|
||--1-----1-----x-x-----------------1-----1-----1---------3---------|


[2ND VERSE]


[Chorus #2] - Guitar #2
 For both chorus, Guitar 1&2 play their separate parts together (see below for guitar #1 chorus)
   (1)     (2)     (3)     (4)     (1)     (2)     (3)     (4)
    F5      (palm mute)             F5              C
||------------------------------------------------------------------|
||------------------------------------------------------------------|
||----------------------0-----0-------------------------0-----------|
||--3-----3-----x-x---0-----0-------3-----3-----3---2-3---0---------|
||--3-----3-----x-x-3-----2-----3---3-----3-----3-------------3---0-|
||--1-----1-----x-x-----------------1-----1-----1-------------------|



   (1)     (2)     (3)     (4)     (1)     (2)     (3)     (4)
    F5      (palm mute)             F5              G
||------------------------------------------------------------------|
||------------------------------------------------------------------|
||----------------------0-----0-------------------------------------|
||--3-----3-----x-x---0-----0-------3-----3-----3-------0-----------|
||--3-----3-----x-x-3-----2-----3---3-----3-----3---2-3-------------|
||--1-----1-----x-x-----------------1-----1-----1---------3---------|



   


   




   (1)     (2)     (3)     (4)     (1)     (2)     (3)     (4)
    F5      (palm mute)             F5              C         
||------------------------------------------------------------------|
||------------------------------------------------------------------|
||----------------------0-----0-------------------------0-----------|
||--3-----3-----x-x---0-----0-------3-----3-----3---2-3---0---------|
||--3-----3-----x-x-3-----2-----3---3-----3-----3-------------3---0-|
||--1-----1-----x-x-----------------1-----1-----1-------------------|

   (1)     (2)     (3)     (4)     (1)     (2)     (3)     (4)
    F5      (palm mute)             F5              C
||------------------------------------------------------------------|
||------------------------------------------------------------------|
||----------------------0-----0-------------------------------------|
||--3-----3-----x-x---0-----0-------3-----3-----3-------0-----------|
||--3-----3-----x-x-3-----2-----3---3-----3-----3---2-3-------------|
||--1-----1-----x-x-----------------1-----1-----1---------3---------|


[Bridge]
Guitar #2
  Am       Gadd4    F      G
|-0--------3--------1------3------|
|-1--------1--------1------3------|
|-2--------0--------2------0------|
|-2--------0--------3------0------|
|----------2--------3------2------|
|----------3--------1------3------|
 

[Solo at end of bridge]
 
e---8/10-10-10p8-8-8h10


[2x]
   (1)     (2)     (3)     (4)     (1)     (2)     (3)     (4)
    F              Am7              C               
||----------------------------------------------------------------0-|
||----1-----1-----1---1-----0h1-------1-----1-----1---1-----0---3---|
||------0-----0---------0-------0-------0-----0---------0-----0-----|
||--3-----3-----3---2-----2-------0-------2-----2---------0---------|
||----------------------------------3---------------2---------------|
||------------------------------------------------------------------|
          
   (1)     (2)     (3)     (4)     (1)     (2)     (3)     (4)
    F              Am7              G                          
||------------------------------------------------------------------|
||----1-----1-----1---1-----0h1-------3---1---0-------3---1---0---1-|
||------0-----0---------0-------0-------0---0---0-------0---0---0---|
||--3-----3-----3---2-----2-------0---------------------------------|
||------------------------------------------------------------------|
||----------------------------------3-------------3-3---------------|

[Chorus #2] - 
[Ending]
Guitar #2
  Am       Gadd4    F      G
|-0--------3--------1------3------|
|-1--------1--------1------3------|
|-2--------0--------2------0------|
|-2--------0--------3------0------|
|----------2--------3------2------|
|----------3--------1------3------|

Let last chord ring for 4 to 6 beats




[Chorus #1] - Guitar #1
  
   Play with Guitar #2
   (1)     (2)     (3)     (4)     (1)     (2)     (3)     (4)
    F5      (palm mute)             F5              C
||------------------------------------------------------------------|
||------------------------------------------------------------------|
||------------------5-----4-----5-----------------------0-----------|
||--3-----3-----x-x-5-----5-----5---3-----3-----3---2-3---0---------|
||--3-----3-----x-x-3-----3-----3---3-----3-----3-------------3---0-|
||--1-----1-----x-x-3-----3-----3---1-----1-----1-------------------|
 
   (1)     (2)     (3)     (4)     (1)     (2)     (3)     (4) 
    F5      (palm mute)             F5              C
||------------------------------------------------------------------|
||------------------------------------------------------------------|
||------------------5-----4-----5-----------------------------------|
||--3-----3-----x-x-5-----5-----5---3-----3-----3-------0-----------|
||--3-----3-----x-x-3-----3-----3---3-----3-----3---2-3-------------|
||--1-----1-----x-x-3-----3-----3---1-----1-----1---------3---------|


[Chorus #2] - Guitar #1

   Play with Guitar #2
   (1)     (2)     (3)     (4)     (1)     (2)     (3)     (4)
    F5      (palm mute)             F5              C
||------------------------------------------------------------------|
||------------------------------------------------------------------|
||------------------5-----4-----5-----------------------0-----------|
||--3-----3-----x-x-5-----5-----5---3-----3-----3---2-3---0---------|
||--3-----3-----x-x-3-----3-----3---3-----3-----3-------------3---0-|
||--1-----1-----x-x-3-----3-----3---1-----1-----1-------------------|
 
   (1)     (2)     (3)     (4)     (1)     (2)     (3)     (4) 
    F5      (palm mute)             F5              C
||------------------------------------------------------------------|
||------------------------------------------------------------------|
||------------------5-----4-----5-----------------------------------|
||--3-----3-----x-x-5-----5-----5---3-----3-----3-------0-----------|
||--3-----3-----x-x-3-----3-----3---3-----3-----3---2-3-------------|
||--1-----1-----x-x-3-----3-----3---1-----1-----1---------3---------|

   (1)     (2)     (3)     (4)     (1)     (2)     (3)     (4)
    F5      (palm mute)             F5              C
||------------------------------------------------------------------|
||------------------------------------------------------------------|
||------------------5-----4-----5-----------------------0-----------|
||--3-----3-----x-x-5-----5-----5---3-----3-----3---2-3---0---------|
||--3-----3-----x-x-3-----3-----3---3-----3-----3-------------3---0-|
||--1-----1-----x-x-3-----3-----3---1-----1-----1-------------------|
 
   


   (1)     (2)     (3)     (4)     (1)     (2)     (3)     (4) 
    F5      (palm mute)             F5              C
||------------------------------------------------------------------|
||------------------------------------------------------------------|
||------------------5-----4-----5-----------------------------------|
||--3-----3-----x-x-5-----5-----5---3-----3-----3-------0-----------|
||--3-----3-----x-x-3-----3-----3---3-----3-----3---2-3-------------|
||--1-----1-----x-x-3-----3-----3---1-----1-----1---------3---------|
            

comments powered by Disqus
↑ Back to top | 3 Doors Down Tabs for Away From The Sun. Lyrics for acoustic guitar and electric guitar. Tablatures and chords are parodies/interpretations of the original songs. You may use it for private study, scholarship, research or language learning purposes only