» » »

36 Crazy Fists, Eightminutesupsidedown Tabs (ver.3)

Artists:  A B C D E F G H I J K L M N O P Q R S T U V W X Y Z # 

Eightminutesupsidedown Tabs (ver.3)

36 Crazy Fists Tabs
 Rating:
4/5 (4 votes)
Eightminutesupsidedown lessons Tabs too difficult? Try these video lessons and learn fast
                drop 1 whole step and drop the 6th string to C (C-G-C-F-A-D)




\\\ I highly recommend you listen to the song while figuring this out ///


Intro (played with a light phaser)

D--------------------------------------------------
A--------------------------------------------------
F--9-9-9-9-9-9-9-9----10-10-10-10-10-10-10-10------
C--------------------------------------------------
G--7-7-7-7-7-7-7-7-----8--8--8--8--8--8--8--8------
C--------------------------------------------------


Intro - continued (entire band kicks in. notice the slides.)

D-------------------------------------------------------
A-------------------------------------------------------
F-7/9-9-9-9-9-9-9-9----7-7-7/10-10-10-10-10-10-10-10----
C-------------------------------------------------------
G-5/7-7-7-7-7-7-7-7----5-5-5/-8--8--8--8--8--8--8--8----
C-------------------------------------------------------


D-------------------------------------------------------
A-------------------------------------------------------
F-7-7-7/9-9-9-9-9-9----7-7-7/10-10-10-10-10/12-12-12----
C-------------------------------------------------------
G-5-5-5/7-7-7-7-7-7----5-5-5/-8--8--8--8--8/10-10-10----
C-------------------------------------------------------




Intro - continued (this is also played as a Post-Chorus)

D------------------------------------------------------------------
A------------------------------------------------------------------
F------------------------------------------------------------------
C-2h3p2p0--2-3-2-0--2h3p2p0--2-3-2-0--2h3p2p0--2-3-2-0--2h3p2p0--2-
G-2h3p2p0--2-3-2-0--2h3p2p0--2-3-2-0--2h3p2p0--2-3-2-0--2h3p2p0--2-
C-2h3p2p0--2-3-2-0--2h3p2p0--2-3-2-0--2h3p2p0--2-3-2-0--2h3p2p0--2-


D------------------------------------------------------------------
A------------------------------------------------------------------
F------------------------------------------------------------------
C-2h3p2p0--2-3-2-0--2h3p2p0--2-3-2-0--2h3p2p0--2-3-2-0--2h3p2p0--0-
G-2h3p2p0--2-3-2-0--2h3p2p0--2-3-2-0--2h3p2p0--2-3-2-0--2h3p2p0--0-
C-2h3p2p0--2-3-2-0--2h3p2p0--2-3-2-0--2h3p2p0--2-3-2-0--2h3p2p0--0-
           
                            notice that he ends on -0- this time ^





Verse - Riff 1

these verse riffs are very hard to figure out since
they are really quick and distorted. but try this, 
and you'll see that it sounds very similar.

D-------------------------------------------
A-------------------------------------------
F------------------------------------------- 4x
C-------------------------------------------
G----------2-----------3-------------------- <- KEY NOTES
C----3-2-0-----0-3-2-0------0-3-2-0-2-------
PM   . . . .   . . . . .    . . . . . 
               

Verse - Riff 2

* = bended harmonic

you don't HAVE to play a bended harmonic. Personally I just play
the note with a vibrato without the harmonic. That means bend it
slightly and quickly.

D-------------------------------------------
A-------------------------------------------
F------------------------------------------- 4x
C-------------------------------------------
G----------2*------------3*-----------3h5--- <- KEY NOTES
C----3-2-0---------3-2-0--------0-3-2-------
PM   . . .         . . .        . . .

##### both of the verse riffs are somewhat difficult to play. #####
	one tip is to play around with the notes on the 6th
	    string but make sure you hit the KEY NOTES. 	

-------------*----------------*---------------*--------------*---------

Yes, I know. Now comes the chorus. But one small detail.
Right before entering the chorus, they hit two notes. 

D--------------------------------------------
A--------------------------------------------
F--------------------------------------------
C----------------3--5------------------------
G----------------3--5------------------------
C----------------3--5------------------------
... OF WHAT USED TO BE!

this replaces the |------3h5-| in the verse
		  |0-3-2-----|  




Chorus

Guitar A 

D----------------------------------------------------
A----------------------------------------------------
F----------------------------------------------------
C-7-7-7-7-7-7-7-7------3-3-3-3-3-3-3-3---------------
G-7-7-7-7-7-7-7-7------3-3-3-3-3-3-3-3---------------
C-7-7-7-7-7-7-7-7------3-3-3-3-3-3-3-3---------------
she's clothed with the silk ...


D--------------------------------------------------------------------
A--------------------------------------------------------------------
F--9-9-9-9-9-9-------------------------------------------------------
C--8-8-8-8-8-8--------------------2h3p2p0--2-3-2-0--2h3p2p0--2-3-2-0-
G--8-8-8-8-8-8--------------------2h3p2p0--2-3-2-0--2h3p2p0--2-3-2-0-
C--8-8-8-8-8-8--------------------2h3p2p0--2-3-2-0--2h3p2p0--2-3-2-0- 
DRYYYYY!!!!!! They'll drain us all dry!        (same as mentioned before)

 ^^^ fret the 8's with your index finger
      and the 9 with your middle finger


Chorus

Guitar B

D--------------------------------------------
A--10--------12--10----12--10----------------
F--------------------------------------------
C--------------------------------------------
G--------------------------------------------
C--------------------------------------------
          she's clothed with
	  (and the echoes will come)

D----------------------12--------------------
A--10--------12--10--------10----------------
F--------------------------------------------
C--------------------------------------------
G--------------------------------------------
C--------------------------------------------
	  the silk
	  (they'll come all around)

D--------------------------------------------
A--10--------12--10----12--10----------------
F--------------------------------------------
C--------------------------------------------
G--------------------------------------------
C--------------------------------------------
          waiting to be 
	  (and drain us)

D--------------------------------------------
A--10--------12--10-----6---8----------------
F--------------------------------------------
C--------------------------------------------
G--------------------------------------------
C--------------------------------------------
	  drained dry
	  (all ....)

D------------12----<-emphasis on this note --
A--------------------------------------------
F-------------9----<-Guitar A plays this ----
C--------------------------------------------
G--------------------------------------------
C--------------------------------------------
	  (DRYYYY!!)


\\\ ONE LAST THING ///

the first time they do the chorus, they only do it once.
But the second time, they do it twice. In between these
two choruses, there's TWO "bangs" if you can call it that.
they go:

D------------------------------------------------------
A------------------------------------------------------
F------------------------------------------------------
C--------3----------5----------7-7-7-7-----3-3-3-3-----
G--------3----------5----------7-7-7-7-----3-3-3-3-----
C--------3----------5----------7-7-7-7-----3-3-3-3-----
	 ^	    ^		(same as before)
     s   c	s   c
     n   r	n   r               she's clothed with the silk ...
     a   a	a   a
     r   s	r   s
     e   h	e   h
     

whew! that's it. the order is pretty easy to figure out.

my other 36 CF tabs:
- One More Word
- Slit Wrist Theory
- Turns To Ashes
- An Agreement Called Forever
            
Submit corrections

comments powered by Disqus
↑ Back to top | 36 Crazy Fists Tabs for Eightminutesupsidedown. Lyrics for acoustic guitar and electric guitar. Tablatures and chords are parodies/interpretations of the original songs. You may use it for private study, scholarship, research or language learning purposes only