» » »

36 Crazy Fists, Eightminutesupsidedown Tabs (ver.1)

Artists:  A B C D E F G H I J K L M N O P Q R S T U V W X Y Z # 

Eightminutesupsidedown Tabs (ver.1)

36 Crazy Fists Tabs
 Rating:
4/5 (4 votes)
Eightminutesupsidedown lessons Tabs too difficult? Try these video lessons and learn fast
                
36 Crazyfists - Eightminutesupsidedown

Tuning: Drop C (C G C F A D)

Legend:

x = Dead note
DP= Double Pick
*P= Pinch Harmonic
/ = Slide
PM= Palm Mute

  Intro 1 (0:00 - 0:09)
D|------------------------------------------------------------------------|
A|------------------------------------------------------------------------|
F|-9-9-9-9-9-9-9-9-9/10101010101010101010---------------------------------|
C|-x-x-x-x-x-x-x-x-x/x-x-x-x-x-x-x-x-x-x----------------------------------|
G|-7-7-7-7-7-7-7-7-7/8-8-8-8-8-8-8-8-8-8----------------------------------|
C|------------------------------------------------------------------------|
DP * * * * * * * * * * * * * * * * * * *

  Intro 2/Fill 1:(0:10 - 0:29)
                 (0:58 - 1:06)
D|------------------------------------------------------------------------|
A|------------------------------------------------------------------------|
F|-9-9-9-9-9-9-9-9-9/7-7-7/10101010101010101010/7-7-7---------------------|
C|-x-x-x-x-x-x-x-x-x/x-x-x/x-x-x-x-x-x-x-x-x-x-/x-x-x---------------------|
G|-7-7-7-7-7-7-7-7-7/5-5-5/8-8-8-8-8-8-8-8-8-8-/5-5-5---------------------|
C|------------------------------------------------------------------------|
DP * * * * * * * * * * * * * * * * * * * * * *  * * * 

  Intro 2/Fill 1 (cont.)
D|------------------------------------------------------------------------|
A|------------------------------------------------------------------------|
F|-9-9-9-9-9-9-9-9-9/7-7-7/10101010101010101010/111111--9-9-9/0-----------|
C|-x-x-x-x-x-x-x-x-x/x-x-x/x-x-x-x-x-x-x-x-x-x-/x-x-x---x-x-x/0-----------|
G|-7-7-7-7-7-7-7-7-7/5-5-5/8-8-8-8-8-8-8-8-8-8-/9-9-9---7-7-7/0-----------|
C|------------------------------------------------------------------------|
DP * * * * * * * * * * * * * * * * * * * * * *  * * *   

  Fill 2: (0:30 - 0:38)
D|------------------------------------------------------------------------|
A|------------------------------------------------------------------------|
F|------------------------------------------------------------------------|
C|-2320-2320-2320-2320-2320-2320-2320-2-----------------------------------|
G|-2320-2320-2320-2320-2320-2320-2320-2-----------------------------------|
C|-2320-2320-2320-2320-2320-2320-2320-2-----------------------------------|

  Fill 2 (Cont.)
D|------------------------------------------------------------------------|
A|------------------------------------------------------------------------|
F|------------------------------------------------------------------------|
C|-2320-2320-2320-2320-2320-2320-2320-0-----------------------------------|
G|-2320-2320-2320-2320-2320-2320-2320-0-----------------------------------|
C|-2320-2320-2320-2320-2320-2320-2320-0-----------------------------------|

  Verse 1: (0:38 - 0:47)
           (1:06 - 1:15)
D|------------------------------------------------------------------------|
A|------------------------------------------------------------------------|
F|------------------------------------------------------------------------|
C|------------------------------------------------------------------------|
G|-----2------3----------2------3----------2------3----------2------3-----|
C|-232---2323---230--232---2323---230--232---2323---230--232---2323---230-|
PM *** * **** * ***  ****  **** * ***  *** * **** * ***  *** * **** * ***

  Verse 2: (0:47 - 0:57)
           (1:16 - 1:24)
D|------------------------------------------------------------------------|
A|-----^-----^-----------^-----^-----------^-----^-----------^-----^------|
F|-----4P*---5P*---------4P*---5P*---------4P*---5P*---------4P*---5P*----|
C|------------------------------------------------------------------------|
G|----------------3H5---------------3H5---------------3H5---------------5-|
C|-232---232----22---232---232----22---232---232----22---232---232----3---|

  Chorus 1                      Chorus 2 (underneath Chorus 1)
D|-----------------------|-------------------------------------------------|
A|-----------------------|-------------------------------------------------|
F|-----------------------|-17-16-17-16-14-17-16-15-------------------------|
C|-7--3--|--8--3-5-------|-x--x--x--x--x--x--x--x--------------------------|
G|-7--3--|--8--3-5-------|-15-14-15-14-12-15-14-13-------------------------|
C|-7--3--|--8--3-5-------|-------------------------------------------------|

End of Chorus  
D|------------------------------------------------------------------------|
A|------------------------------------------------------------------------|
F|-1010101010101010107----------------------------------------------------|
C|-8-8-8-8-8-8-8-8-8-5-2320-2320-2320-2320-2320-2320-2--------------------|
G|-8-8-8-8-8-8-8-8-8-5-2320-2320-2320-2320-2320-2320-2--------------------|
C|-8-8-8-8-8-8-8-8-8-5-2320-2320-2320-2320-2320-2320-2--------------------|
            
Submit corrections

comments powered by Disqus
↑ Back to top | 36 Crazy Fists Tabs for Eightminutesupsidedown. Lyrics for acoustic guitar and electric guitar. Tablatures and chords are parodies/interpretations of the original songs. You may use it for private study, scholarship, research or language learning purposes only