» » »

36 Crazy Fists, Eightminutesupsidedown Tabs (ver.2)

Artists:  A B C D E F G H I J K L M N O P Q R S T U V W X Y Z # 

Eightminutesupsidedown Tabs (ver.2)

36 Crazy Fists Tabs
Rating:
0/5 (0 votes)
Eightminutesupsidedown lessons Tabs too difficult? Try these video lessons and learn fast
                

KEY:
/ : Slide Down
\ : Slide Up
- : palm mute
~ : tremolo
h : hammer-on
p : pull-off
^ : bend
x : dead note


INTRO (strumming not noted)
D|--------|
A|--------|
F|--7--9--|
C|--x--x--|
G|--5--7--|
C|--------|


RIFF 1
D|------------------|
A|------------------|
F|--7--9--7--9--10--|
C|--x--x--x--x--x---|
G|--5--7--5--7--8---|
C|------------------|

RIFF 2
D|-------------|-------|
A|-------------|-------|
F|-------------|-------|
C|--0-3p2p0h2--|--0-2--|
G|--0-3p2p0h2--|--0-2--|
C|--0-3p2p0h2--|--0-2--|
           (x3)     (x1)

VERSE
D|-----------------|-------------------|
A|-----------------|-------------------|
F|-----------------|-------------------|
C|-----------------|-------------------|
G|-----------------|-------2~-3~--3/5--|
C|--0000200030002--|--0000---0--0------|
PM  -------------     ----   -  -
               (x4)                (x4)

CHORUS (strumming not noted)
D|--------|----------|
A|--------|----------|
F|--------|----------|
C|--7--3--|--8--3-5--|
G|--7--3--|--8--3-5--|
C|--7--3--|--8--3-5--|


BRIDGE
D|---------------------------|
A|---------------------------|
F|---------------------------|
C|--9\7/9\7/9\7/9\7/9\7/9\7--|
G|--7\5/7\5/7\5/7\5/7\5/7\5--|
C|--7\5/7\5/7\5/7\5/7\5/7\5--|


PATTERN
INTRO      x2
RIFF 1     x2
RIFF 2     x2
VERSE
RIFF 1
VERSE
CHORUS     x2
BRIDGE
RIFF 2     x2
VERSE
CHORUS     x2
BRIDGE     x2
CHORUS     x2
RIFF 2     x2


That's it folks. Another great song by 36 Crazyfists. Keep in mind this is an interpretation and if I
change anything I'll be sure to modify and get the new version up ASAP. Peace.
            
Submit corrections

comments powered by Disqus
↑ Back to top | 36 Crazy Fists Tabs for Eightminutesupsidedown. Lyrics for acoustic guitar and electric guitar. Tablatures and chords are parodies/interpretations of the original songs. You may use it for private study, scholarship, research or language learning purposes only