» »

/0-9/311-tabs-28.html

»

311, Thrive Not Sink Bass tabs (ver.1)

Artists:  A B C D E F G H I J K L M N O P Q R S T U V W X Y Z # 

Thrive Not Sink Bass tabs (ver.1)

311 Tabs
 Rating:
4/5 (4 votes)
Thrive Not Sink lessons Tabs too difficult? Try these video lessons and learn fast
                311 -Thrive Not Sink   AKA Turn Yourself Around
Wrote by 311
T=SLAP

INTRO
G:----------------------------------------------
D:----------------------------------------------
A:-----3--3--3-333--------------------------
E:----------------------------------------------


FAST SLAP PART   Double slap as fast as you can... dont even try if you cant slap
G:---------------------------------------------------------------    Repeat ( well listen to the song)
D:---------0-3-5------0-3-5------0-3-5--------------------
A:---0-3-5------0-3-5------0-3-5------0-3-5-3-2-1-----
E:---------------------------------------------------------------
       T T T T T T T T T T T T T T T T T T T T T T T

PRE-VERSE
G:------------------------------
D:------------------------------
A:----3--3---3-0-4-5-7-8--
E:------------------------------


VERSE					Fill 
G:--------------------------------------------------------|-------------------------
D:--------------7-7--------------------------5----------|--------5-5-5-6-5---
A:---0--0-7-9-----9-9-7----0--5-9-5-6---6-5-6--|---5-9-----------------
E:--------------------------------------------------------|------------------------


PRE-CHORUS / CHORUS
G:--------------------------------------------------------------
D:--------------------------------------------------------------
A:------5-5-5---5-5-5----5555--0----3---0-3-5-7-8---
E:--------------------------------------------------------------

                   That is about it.  You can slap the whole thing if you want to.
	 Sometimes i do because it sounds better and P-Nut might be doing that anyway. 
	There are some easy fills that you can just figure out (no need to tab it). 
	 I am pretty sure it is right but i might have messed up on some parts. 

	thanks
            
Submit corrections

comments powered by Disqus
↑ Back to top | 311 Bass for Thrive Not Sink. Lyrics for acoustic guitar and electric guitar. Tablatures and chords are parodies/interpretations of the original songs. You may use it for private study, scholarship, research or language learning purposes only