» »

/0-9/311-tabs-28.html

»

Love Song Tabs (ver.1)

Artists:  A B C D E F G H I J K L M N O P Q R S T U V W X Y Z # 

Love Song Tabs (ver.1)

311
Rating:
0/5 (0 votes)

Tabs too difficult? Try these video lessons and learn fast.
                Tuning: standard [EADGBe]

| /  slide up
| \  slide down
| h  hammer-on
| p  pull-off
| ~  vibrato
| +  harmonic
| x  Mute note

First riff goes like:
Listen for how many times played Im too lazy
e|---------------------------------------------------------------------------|
B|-----1—3/5-3-5-3-1---------------------------------------------------------|
G|--2----------------2-------------------------------------------------------|
D|---------------------------------------------------------------------------|
A|---------------------------------------------------------------------------|
E|---------------------------------------------------------------------------|

Or like this

e|---------------------------------------------------------------------------|
B|---------------------------------------------------------------------------|
G|------5-7/9-7-9-7-5--------------------------------------------------------|
D|----7---------------7------------------------------------------------------|
A|---------------------------------------------------------------------------|
E|---------------------------------------------------------------------------|


Then 30 seconds of samples comes then:

e|-----5h7-9-9-7-5-7-7-5-3-0-------------------------------------------------|
B|---------------------------------------------------------------------------|
G|---------------------------------------------------------------------------|
D|---------------------------------------------------------------------------|
A|---------------------------------------------------------------------------|
E|---------------------------------------------------------------------------|

then

e|-----5h7-9-9-7-5-7-7-5-3-0-------------------------------------------------|
B|----------------------------3-111111---------------------------------------|
G|---------------------------------------------------------------------------|
D|---------------------------------------------------------------------------|
A|---------------------------------------------------------------------------|
E|---------------------------------------------------------------------------|
            
Tabs too difficult? Try these video lessons and learn fast.


comments powered by Disqus
↑ Back to top | Tablatures and chords are parodies/interpretations of the original songs. You may use it for private study, scholarship, research or language learning purposes only