» »

/0-9/311-tabs-28.html

»

311, Love Song Tabs (ver.2)

Artists:  A B C D E F G H I J K L M N O P Q R S T U V W X Y Z # 

Love Song Tabs (ver.2)

311 Tabs
Rating:
0/5 (0 votes)
Love Song lessons Tabs too difficult? Try these video lessons and learn fast
                
band:311


alright....this is a cover a the cures love song
and 311 did a great job

normal tunning

gut. 1
preety much played through the whole song
*slight echo* all upstrokes
e|-5-5-5-5--5-5-5-5--3-3-3-3-3-3-3--1-1-1-1-1-1-1-1--3-3-3-3-3|
b|-5-5-5-5--5-5-5-5--3-3-3-3-3-3-3--1-1-1-1-1-1-1-1--5-5-5-5-5|
g|-5-5-5-5--5-5-5-5--4-4-4-4-4-4-4--2-2-2-2-2-2-2-2--4-4-4-4-4|
d|-7-7-7-7-----------5-5-5-5-5-5-5--3-3-3-3-3-3-3-3-----------|
a|------------------------------------------------------------|
e|------------------------------------------------------------|

gut. 2 riff 1

e|-0--0-0--0--0--0-0----0--0-0--0--0--0-0--|
b|-1--3/5--3--5--3\1----1--3/5--3--5--3\1--|
g|--------------------2-------------------2|
d|-----------------------------------------|
a|-----------------------------------------|
e|-----------------------------------------|


gut. 2 riff 2
rep. twice
e|-5h7-8-8-7-5-7-7-5---------|
b|-------------------8-5-5---|
g|---------------------------|
d|---------------------------|
a|---------------------------|
e|---------------------------|

after u play that 2 time u play this
version the 3rd time.
e|-5h7-8-8-7-5-7-7-5-----------------|
b|-------------------8-5-5-5---------|
g|---------------------------7-5-5-5-|
d|-----------------------------------|
a|-----------------------------------|
e|-----------------------------------|

chorus played 3 times
e|-1---------0---0-0-0-0-0-0-0---|
b|-1---------0---1-1-3-3-1-0-0---|
g|-2---------4---2-2-----------2-|
d|-3-------5-----2-2-------------|
a|-3-----5-------0-0-------------|
e|-1---3-------------------------|

after 3rd time play this
e|---1-1-----3--|
b|---1-1-----3--|
g|---2-2--4--4--|
d|-3-3-3--5-----|
a|-3------5-----|
e|-1------3-----|


finally the solo
*repeat the 1 at the end alot*
e|7-7-7-7------7-7-7-7------7-7-7-7------7-7-7h8/10----------0-0-0-0--|
b|--------8-8-8--------8-8-8-------8-8-8------------8-8--10--5\3-1-3-1|
g|--------------------------------------------------------------------|
d|--------------------------------------------------------------------|
a|--------------------------------------------------------------------|
e|--------------------------------------------------------------------|


thats it,you'r gonna have to figure out the order of the song you'r
            
Submit corrections

comments powered by Disqus
↑ Back to top | 311 Tabs for Love Song. Lyrics for acoustic guitar and electric guitar. Tablatures and chords are parodies/interpretations of the original songs. You may use it for private study, scholarship, research or language learning purposes only