» »

/0-9/311-tabs-28.html

»

Thank Your Lucky Stars Tabs (ver.3)

Artists:  A B C D E F G H I J K L M N O P Q R S T U V W X Y Z # 

Thank Your Lucky Stars Tabs (ver.3)

311
Rating:
0/5 (0 votes)

Hard to play? Try these video lessons and learn fast.
                -------------------------------------------------------------------------------
                             Thank Your Lucky Stars - 311
-------------------------------------------------------------------------------

| /  slide
| h  hammer-on
| p  pull-off
| ~  vibrato
| () harmonic
| x  Mute note

Chord formations:
This is how I play the chords for this song. Trust me, it's about the easiest and
cleanest way once you get the hang of it. And it makes the transitions very easy.

B:
x _ _ _ _ _
| | | | | |
| 1 1 1 1 1
| | | | | |
| | 3 3 3 |
| | | | | |

A:
x 0 _ _ _ _
| | | | | |
| | 1 1 1 |
| | | | | |

E:
0 _ _ _ _ _
| | | | | |
| 3 4 | | |
| | | | | |

F#:
_ _ _ _ _ _
| | | | | |
1 1 1 1 1 1
| | | | | |
| 3 4 | | |
| | | | | |


v: downstroke
^: upstroke


Tuning: Standard


Intro:
    v^v^ ^ ^ ^^v ^     v^v^ ^ ^ ^^v v
e|-------------------------------------------|
B|-------------------------------------------|
G|--4444-2-4-----------4444-2-4--------------|
D|--4444-2-4-222-4-----4444-2-4-222-4--------|
A|--2222-0-2-222-4-----2222-0-2-222-4--------|
E|-----------000-2--------------000-2--------| x2

Verse pt.1:
e|-------------------------------------------|
B|-------------------------------------------|
G|--4444-2-4-----------4444-2-4--------------|
D|--4444-2-4-222-4-----4444-2-4-222-4--------|
A|--2222-0-2-222-4-----2222-0-2-222-4--------|
E|-----------000-2--------------000-2--------| x4

Verse pt. 2:
e|---------------------------------------|
B|---------------------------------------|
G|--2222-4-2----------2222-4-2-----------|
D|--2222-4-2--222-4---2222-4-2--222-4----|
A|--0000-2-0--222-4---0000-2-0--222-4----|
E|------------000-2-------------000-2----|

e|---------------------------------------|
B|---------------------------------------|
G|--4444-2-4-----------4444-2-4----------|
D|--4444-2-4-222-4-----4444-2-4-222-4----|
A|--2222-0-2-222-4-----2222-0-2-222-4----|
E|-----------000-2--------------000-2----| x2


Chorus:
Guitar 1
e|----------------------------|
B|--6-------------------------|
G|--6--5-5-5------6--3-3-3----|
D|--6--6-6-6------9--4-4-4----|
A|--4--6-6-6------9--4-4-4----|
E|-----4-4-4------7--2-2-2----| x4

Guitar 2
e|----------------------------|
B|----------------------------|
G|--10-/13-/8-/6--------------|
D|--x--/x--/x-/x-/6-/8-/9-----|
A|--8--/11-/6-/4-/x-/x-/x-----|
E|---------------/4-/6-/7-----| x4

If you're lazy or only have one guitar, you can get away with this:
e|--4--4-4-4------------------|
B|--6--4-4-4------------------|
G|--6--5-5-5------6--3-3-3----|
D|--6--6-6-6/8----9--4-4-4----|
A|--4--6-6-6------9--4-4-4----|
E|-----4-4-4------7--2-2-2----| x4

Break:
e|------------------------------(5-5)------------|
B|------------------------------(5-5)------------|
G|-----------------------------------(5-5)-------|
D|-----------------------------------(5-5)-------|
A|--44-4-2-4-2-4-222--44-4-2-4------------(5-5)--|
E|--22-2-0-2-0-2-000--22-2-0-2------------(5-5)--| 

e|----------------------------------------------------------|
B|-------------------------------------------------(7)------|
G|-------------------------------------------------(7)------|
D|-------------------------------------------------(7)------|
A|--44-4-2-4------------------44-4-2-4---------(5)-(7)------|
E|--22-2-0-2--0-2-4-5-4-2-0---22-2-0-2------(5)-------------| x2

e|---------------------------------------------------------------------------|
B|---------------------------------------------------------------------------|
G|---------------------------------------------------------------------------|
D|---------------------------------------------------------------------------|
A|---------------------------------------------------------------------------|
E|--0-0-5-7-8-8-8-8-8-8------------------------------------------------------|


Song order:
Intro
Verse pt.1
Verse pt.2
Chorus
First half of intro
Verse pt.1
Verse pt.2
Chorus
Break
Chorus


===============================================================================
            
Hard to play? Try these video lessons and learn fast. | Correct




comments powered by Disqus
↑ Back to top | Tablatures and chords are parodies/interpretations of the original songs. You may use it for private study, scholarship, research or language learning purposes only