» »

/0-9/311-tabs-28.html

»

311, Slinky Girl Bass tabs (ver.1)

Artists:  A B C D E F G H I J K L M N O P Q R S T U V W X Y Z # 

Slinky Girl Bass tabs (ver.1)

311 Tabs
 Rating:
4/5 (4 votes)
Slinky Girl lessons Tabs too difficult? Try these video lessons and learn fast
                wow there are some real mutilations of 
this song posted right now. Here's my transcription
I hope it's good.

It's on a 5 string a la p-nut. It's nothing that
can't be done on a regularly-tuned 4 string though. 


listen to the recording closely cause timing is everything
i dotted notes that are played in quicker succession (ex: 3.3) 

INTRO
 (drum intro)                 (guitar)
G-------------|---------------|-----------|---------------|
D-------------|-0-3-0-5h6p5-3-|-----------|-0-3-0-5h6p5-3-|
A-------------|---------------|-----------|---------------|
E-------------|---------------|-----------|---------------|
B-------------|---------------|-----------|---------------|
-
   (guitar)                       tapping
G-------------|---------------|---17/19---|---------------|---------|
D-------------|-0-3-0-5h6p5-3-|---17/19---|-0-3-0-5h6p5-3-|-0---0---|
A-------------|---------------|-----------|---------------|---1---1-|
E-------------|---------------|-----------|---------------|---------|
B-------------|---------------|-----------|---------------|---------|
-
  slappin  chorus
G-------------------|---------3----3.3-|------------------|
D-----------3---3.3-|------------------|----------3---3.3-|
A-------------------|-1--1.1.1---x-----|------------------|
E-1--1.1.1----x-----|------------------|-1--1.1.1---x-----|
B-------------------|------------------|------------------|
-

G---3---7---8---10-|-------------------|---------3----3.3-|
D------------------|-----------3---3.3-|------------------|
A-1---5---6---8----|-------------------|-1--1.1.1---x-----|
E------------------|-1--1.1.1----x-----|------------------|
B------------------|-------------------|------------------|
-
                    fingerstyle>>>          slow slide
G------------------|---------------------|----------------|
D----------3---3.3-|---------------------|----------------|
A------------------|-1--1-1-(let ring)---|----------------|
E-1--1.1.1---x-----|---------------------|-6\\\\\\\\\\\\1-|
B------------------|---------------------|----------------|
-
                      bend/vibrato
G------|-------|-------------------|-------|-------|-------|-------------|
D------|-------|-------------------|-------|-------|-------|-------0-1-3-|
A-1----|-------|-1-----------------|-------|-1-----|-------|-1-----------|
E------|-1-----|--------3^4v3^4v3--|-1-----|-------|-1-----|-------------|
B------|-------|-------------------|-------|-------|-------|-------------|
-
                                           bend/vibrato
G---------|-----------|--------|---------|-------------|------------|
D---------|-----------|--------|---------|-------------|------------|
A---------|---1-----1-|--------|---1-----|-------------|----------1-|
E-1----1--|-1---------|-1----1-|-1-------|-3^4v3^4v3-1-|--1-----1---|
B---------|-----------|--------|---------|-------------|------------|
- 
                             slap
G-------|----------------|---3---7---8---10-|
D-------|----------------|------------------|
A-----1-|---1------------|-1---5---6---8----|
E-------|-----1--1-----1.|------------------|
B-------|----------------|------------------|
-
  slappin chorus
G-------------------|---------3----3.3-|------------------|
D-----------3---3.3-|------------------|----------3---3.3-|
A-------------------|-1--1.1.1---x-----|------------------|
E-1--1.1.1----x-----|------------------|-1--1.1.1---x-----|
B-------------------|------------------|------------------|
-

G---3---7---8---10-|-------------------|---------3----3.3-|
D------------------|-----------3---3.3-|------------------|
A-1---5---6---8----|-------------------|-1--1.1.1---x-----|
E------------------|-1--1.1.1----x-----|------------------|
B------------------|-------------------|------------------|
-
                    fingerstyle>>>          
G------------------|---------------------|
D----------3---3.3-|---------------------|
A------------------|-1--1-1-(let ring)---|
E-1--1.1.1---x-----|---------------------|
B------------------|---------------------|
-
  refrain (that slinky girl is in my brain...)
G-----------|------------|------------|---------------------|
D-----------|-------0----|------------|-------0-----3h5p3-0-|
A-------0---|-1--3-------|-------0----|-1--3----------------|
E-1--3------|------------|-1--3-------|---------------------|
B-----------|------------|------------|---------------------|
-
                                         slap
G-----------|------------|------------|---3---3---3---3-|
D-----------|-------0----|------------|-----------------|
A-------0---|-1--3-------|-------0----|-1---1---1---1---|
E-1--3------|------------|-1--3-------|-----------------|
B-----------|------------|------------|-----------------|
-

  slappin chorus
G-------------------|---------3----3.3-|------------------|
D-----------3---3.3-|------------------|----------3---3.3-|
A-------------------|-1--1.1.1---x-----|------------------|
E-1--1.1.1----x-----|------------------|-1--1.1.1---x-----|
B-------------------|------------------|------------------|
-

G---3---7---8---10-| now do the intro part with a bit of
D------------------| variation on the tapping followed by chorus (slappin)
A-1---5---6---8----|
E------------------|
B------------------|
-

  funky part (ohh mackadocious she's sweet and precocious...)
G-----------------|---------------|-----------------|----------------|
D---1-------------|---1-----------|---1-------------|---1------------|
A-3---3-3-----1-1-|-3---3-3----1--|-3---3-3-----1-1-|-3---3----------|
E---------3-3-----|---------3-----|---------3-3-----|----------------|
B-----------------|---------------|-----------------|----------------|
-

G-----------------|---------------|-----------------|----------------|
D---1-------------|---1-----------|---1-------------|---1------------|
A-3---3-3-----1-1-|-3---3-3----1--|-3---3-3-----1-1-|-3---3----------|
E---------3-3-----|---------3-----|---------3-3-----|----------------|
B-----------------|---------------|-----------------|----------------|
-

G-------|-------|-------|-------------------| refrain (slinky girl
D-------|-------|-------|-------------------| is in my brain...)
A-------|-1-----|-------|-1-1--1-(let ring)-| followed by chorus (slappin)
E-1-----|-------|-1-----|-------------------|
B-------|-------|-------|-------------------|
-

  Now do the intro again with another 
  tapping variation.this is picking up
  from the last few measures of the intro

G---------------|---------|----------|
D-0-3-0-3h5p3-0-|---------|----------|
A---------------|-0---0---|----------| rest a few measures
E---------------|---1---1-|-1-(hold)-|
B---------------|---------|----------|
-
  breakdown solo (very easy to expand on)
G-------------8------|-------------8.8------|
D------0h8h10--------|--8---0h8h10----------|
A--8-----------------|----------------------|
E--------------------|----------------------|
B--------------------|----------------------|
-

G-------------8------|-------------8.8.8.8----|
D------0h8h10--------|--8---0h8h10---------10-|
A--8-----------------|------------------------|
E--------------------|------------------------|
B--------------------|------------------------|
-

G-------------8------|-------------8--10/12-10-|
D------0h8h10--------|--8---0h8h10-------------|
A--8-----------------|-------------------------|
E--------------------|-------------------------|
B--------------------|-------------------------|
-

G-------------|------------|------------|------------|
D-------------|------------|------------|------------|
A-------------|------------|------------|------------|
E-------------|-6----------|------------|-6----------|
B-6----9--8-9-|----9--8--9-|-6----9-8-9-|----9--8--9-|
-

G-------------|------------|------------|------------|
D-------------|------------|------------|------------|
A-------------|------------|------------|------------|
E-------------|-6----------|------------|-6----------|
B-6----9--8-9-|----9--8--9-|-6----9-8-9-|----9--8--9-|
-

G--5h8-8.8--5h8-8.8-|----------------| repeat these 2 
D-------------------|--8--6--5--6--5-| measures 2 more
A-------------------|----------------| times
E-x---x----x---x----|-x-xx-xx-xx-xx--|
B-------------------|----------------|
-

G--5h8-8.8--5h8-8.8-|--------------------|
D-------------------|--------------------|
A-------------------|--1-1--1-(let ring)-| 
E-x---x----x---x----|--------------------|
B-------------------|--------------------|
-
  do refrain (slinky girl is in my brain...) then...

G---------|-----------|--------|--------------------|
D---------|-----------|--------|--------------------|
A---------|---1-----1-|---1----|---1-1-1-(let ring)-|
E-1-------|-1---------|-----1--|-1------------------|
B---------|-----------|--------|--------------------|
-
 slinky girl is in my brain now i'll never be the same
G-----------------------------------------------------------
D-----------------------------------------------------------
A-----------------------------------------------------------
E-----------------------------------------------------------
B-----------------------------------------------------------
-
 no one can ever see what that slinky girl 
G--------|--3-ring--|---------|
D-3-ring-|----------|-3-ring--|
A--------|----------|---------|
E--------|----------|---------|
B--------|----------|---------|

-
(tapping) means to me                            
G--15\\\\\\\\\\10///////////////--20--20-| play slappin chorus
D--15\\\\\\\\\\10///////////////--20--20-| followed by intro.
A------slide-dn-----slide-up-------------| hold last note out
E----------------------------------------|
B----------------------------------------|
            
Submit corrections

comments powered by Disqus
↑ Back to top | 311 Bass for Slinky Girl. Lyrics for acoustic guitar and electric guitar. Tablatures and chords are parodies/interpretations of the original songs. You may use it for private study, scholarship, research or language learning purposes only