» »

/0-9/311-tabs-28.html

»

Reconsider Everything Tabs (ver.2)

Artists:  A B C D E F G H I J K L M N O P Q R S T U V W X Y Z # 

Reconsider Everything Tabs (ver.2)

311
Rating:
0/5 (0 votes)

Hard to play? Try these video lessons and learn fast.
                
^ = bend the string on that note
h = hammer on
\ = slide down
/ = slide up

Standard tuning

Intro:(Nick's part) listen for strumming
|--------------------------------------------------
|--------------------------------------------------
|--------------------------------------------------
|-7-7-7-7-7--5-5-5-5-5--10-10-10-10-10--9-9-9-9-9--
|-7-7-7-7-7--5-5-5-5-5--10-10-10-10-10--7-7-7-7-7--
|-5-5-5-5-5--3-3-3-3-3---8--8--8--8--8--7-7-7-7-7--

Guitar Riff:(Tim uses wah-wah pedal) listen for strumming
|-------5-3-0------------------------------5-3-0---------------------------------
|-------------3^--------------5--3^--------------3^--------------5-3^------------
|----------------4--------5-7-------4---------------4--------5-7------4----------
|-5-5/7--------------5-5\---------------5-5\------------5-5\--------------5-5/7--
|--------------------------------------------------------------------------------
|--------------------------------------------------------------------------------

Verse(Palm Muted)
|------------------------------------------------------
|------------------------------------------------------
|------------------------------------------------------
|-------------------------------------------9-9-9-9-9--
|-7-7-7-7-7--7-5-5-5-5-5-10-10-10-10-10--10-7-7-7-7-7--
|-5-5-5-5-5--5-3-3-3-3-3--8--8--8--8--8---8------------


when they stop and the guitar slides down, here are the two sliding down, they 
slide down from these notes)
first time -------  second time -------
           -------              -------
           -------              -------
           -------              -------
           --12\--              -------
           -------              --12\--           

Bridge thing: ("how many time can they tell you")
|-0-0-0-0-0-0-0-0--0-0-0-0-0-0-0-0--0-0-0-0-0-0-0-0--0-0-0---------------------
|-0-0-0-0-0-0-0-0--0-0-0-0-0-0-0-0--0-0-0-0-0-0-0-0--0-0-0---------------------
|-5-5-5-5-5-5-5-5--2-2-2-2-2-2-2-2--5-5-5-5-5-5-5-5--2-2-2---------------------
|-5-5-5-5-5-5-5-5--2-2-2-2-2-2-2-2--5-5-5-5-5-5-5-5--2-2-2-5-2-----------------
|-3-3-3-3-3-3-3-3--0-0-0-0-0-0-0-0--3-3-3-3-3-3-3-3--0-0-0-5-2-----------------
|----------------------------------------------------------3-0-----------------

|-0-0-0-0-0-0-0-0--0-0-0-0-0-0-0-0--0-0-0-0-0-0-0-0--0-0-0-0-0-0-0-0-----------
|-0-0-0-0-0-0-0-0--0-0-0-0-0-0-0-0--0-0-0-0-0-0-0-0--0-0-0-0-0-0-0-0-----------
|-5-5-5-5-5-5-5-5--2-2-2-2-2-2-2-2--5-5-5-5-5-5-5-5--7-7-7-7-9-9-9-9-----------
|-5-5-5-5-5-5-5-5--2-2-2-2-2-2-2-2--5-5-5-5-5-5-5-5--7-7-7-7-9-9-9-9-----------
|-3-3-3-3-3-3-3-3--0-0-0-0-0-0-0-0--3-3-3-3-3-3-3-3--5-5-5-5-7-7-7-7-----------
|------------------------------------------------------------------------------

SA's part: (palm muted)
|---------------------
|---------------------
|---------------------
|---------------------
|-4-4-4-4-4-5-5-5-5-5-
|-2-2-2-2-2-3-3-3-3-3- play this 4 times

The part right after this:
|------------------------------------------------------
|------------------------------------------------------
|------------------------------------------------------
|-4-4-7-7-7-7-7-4-4-2-2-2-2-2-4-4-7-7-7-7-7-4-4-2---4--
|-2-2-5-5-5-5-5-2-2-0-0-0-0-0-2-2-5-5-5-5-5-2-2-0-4-2--
|-------------------------------------------------2----
the last time it does this it doesn't play the last two notes here, 
it stays on zero and goes into the intro.

Props go to 311 




|Come Original|
            
Hard to play? Try these video lessons and learn fast. | Correct




comments powered by Disqus
↑ Back to top | Tablatures and chords are parodies/interpretations of the original songs. You may use it for private study, scholarship, research or language learning purposes only