» »

/0-9/311-tabs-28.html

»

Offbeat Bare-Ass Bass tabs (ver.3)

Artists:  A B C D E F G H I J K L M N O P Q R S T U V W X Y Z # 

Offbeat Bare-Ass Bass tabs (ver.3)

311
Rating:
0/5 (0 votes)

Tabs too difficult? Try these video lessons and learn fast.
                Bassist: P-Nut
Tuning:B-E-A-D-G


Intro/Verse 1:
G|--------------------------------------------------------------------------|
D|--------------------------------------------------------------------------|
A|--------------------------------------------------------------------------|
E|--------------------------------------------------------------------------|
B|--0--0--1--1--0--0--1--1--0--0--1--1--0--0--1--1--0--0--1--1--0--0--1--1--| (x2)

G|------------------------------------------------------------|
D|---------------------------------------------4-2------------|
A|-------------------------------------------------4-3-2-0----|
E|---------------------------------------------------------0--|
B|--0--0--1--1--0--0--1--1--0--0--1--1--0--0------------------|

G|-------------------------------------------------------------------|
D|----------4-2-4-4---------4-2-4-4---------4-2-4-4---------4-2-4-4--|
A|-------------------------------------------------------------------|
E|--0-1-2-2---------0-1-2-2---------0-1-2-2---------0-1-2-2----------|
B|-------------------------------------------------------------------| (x3)

G|------------------------------------------------|
D|------------------------------------------------|
A|------------------------------------------------|
E|--0-0--0--x2-3-2-----------------------------3--|
B|---------------------------------3-5-5-3-5-3----|


Chorus:
G|----------------------------------------------------------------------|
D|----------------------------------------------------------------------|
A|----------------------------------------------------------------//12--|
E|--3-3------------3-3------------3-3------------3-3--------------------|
B|------2--2-2-2-2-----2--2-2-2-2-----2--2-2-2-2-----2--2-2-2-2---------|


Verse 2:
G|--------------------------------------------------------------|
D|--------------------------------------------------------------|
A|--------------------------------------------------------------|
E|--------------------------------------------------------------|
B|--0--0--1--1--0--0--1--1--0--0--1--1--0--0--1--1--0--0--1--1--|

G|--------------------|
D|--------------------|
A|--------------------|
E|--------------------|
B|--0--0--1--1--0--0--|

G|--------4-4p2---------2-2h4--------4-4p2-2-2-------2h4--|
D|--------------4-2h4-x------------------------4-2h4------|
A|--0h2-x----------------------0h2-x--------x-------------|
E|--------------------------------------------------------|
B|--------------------------------------------------------| (x2)
    S   S P P   S S   S P P    S   S P P   PSP S S   P

G|-------------------------------------------------------------------|
D|----------4-2-4-4---------4-2-4-4---------4-2-4-4---------4-2-4-4--|
A|-------------------------------------------------------------------|
E|--0-1-2-2---------0-1-2-2---------0-1-2-2---------0-1-2-2----------|
B|-------------------------------------------------------------------| (x3)


Chorus:
G|----------------------------------------------------------------------|
D|----------------------------------------------------------------------|
A|----------------------------------------------------------------//12--|
E|--3-3------------3-3------------3-3------------3-3--------------------|
B|------2--2-2-2-2-----2--2-2-2-2-----2--2-2-2-2-----2--2-2-2-2---------|


Verse 3:
G|-------------------------------------------------------------------|
D|-------------------------------------------------------------------|
A|-------------------------------------------------------------------|
E|-------------------------------------------------------------------|
B|--19\--0--0--1--1--0--0--1--1--0--0--1--1--0--0--1--1--0--0--1--1--|

G|--------4-4p2---------2-2h4--------4-4p2-2-2-------2h4--|
D|--------------4-2h4-x------------------------4-2h4------|
A|--0h2-x----------------------0h2-x--------x-------------|
E|--------------------------------------------------------|
B|--------------------------------------------------------| (x4)
    S   S P P   S S   S P P    S   S P P   PSP S S   P

G|-------------------------------------------------------------------|
D|----------4-2-4-4---------4-2-4-4---------4-2-4-4---------4-2-4-4--|
A|-------------------------------------------------------------------|
E|--0-1-2-2---------0-1-2-2---------0-1-2-2---------0-1-2-2----------|
B|-------------------------------------------------------------------| (x3)


Chorus/Outro:
G|---------------------------------------------------------------|
D|---------------------------------------------------------------|
A|------------------------------------4--4-4-4-4-----------------|
E|--3-3------------3-3------------3-3------------3-3-------------|
B|------2--2-2-2-2-----2--2-2-2-2--------------------2--2-2-2-2--|

G|-------------------------------------------------------|
D|-------------------------------------------------------|
A|------4--4-4-4-4---------------------------------------|
E|--3-3------------3-3------------3-3------------3-3-----|
B|---------------------2--2-2-2-2-----2--2-2-2-2-----2~--|
            
Tabs too difficult? Try these video lessons and learn fast.


comments powered by Disqus
↑ Back to top | Tablatures and chords are parodies/interpretations of the original songs. You may use it for private study, scholarship, research or language learning purposes only