» »

/0-9/311-tabs-28.html

»

311, Offbeat Bare-Ass Bass tabs (ver.1)

Artists:  A B C D E F G H I J K L M N O P Q R S T U V W X Y Z # 

Offbeat Bare-Ass Bass tabs (ver.1)

311 Tabs
 Rating:
4/5 (4 votes)
Offbeat Bare-Ass lessons Tabs too difficult? Try these video lessons and learn fast
                Main Verse Riff
G  :-----------------------------------------
D  :-----------------------------------------
A  :-----------------------------------------
E  :-----------------------------------------
B  :-0-0-1-1-0-0-1-1-0-0-1-1-0-0-1-1---------

 Fill
G  :---------------------------
D  :---------------4-2---------
A  :-------------------4-3-2-0-
E  :---------------------------
B  :---------------------------




 Verse 2
G  :--------------------------------------------------------------------
D  :-----------4-2-4-4---------4-2-4-4---------4-2-4-4---------4-2-4-4--
A  :--------------------------------------------------------------------
E  :0--0-1-2-2---------0-1-2-2---------0-1-2-2---------0-1-2-2----------
B  :--------------------------------------------------------------------




 Verse Part 3
G  :--------------------------------------------------------------------
D  :---------------------------------------------------------------5----
A  :----------------------------------------------5--7-7-7-5-7-5-7------
E  :-------------------0-0-0-0-2-3-2------------------------------------
B  :--------------------------------------------------------------------



Chorus

G  :--------------------------------------------------------------------
D  :--------------------------------------------------------------------
A  :--------------------------------------------------------------------
E  :----------3-3-----------3-3-----------3-3-----------3--3------------
B  :--------------2-2-2-2-2-----2-2-2-2-2-----2-2-2-2-2------2-2-2-2-2--

G  :------|
D  :------|
A  :------|
E  :/-/-17|
B  :------|


Slap Part
G  :---------4-2----------2-2-h4-------4-2-2-2--------2-h4|
D  :-------------4-2-h4-x-----------------x----4-2-h4-----|
A  :---0-h2-x-x------------------0-h2-x-x-----------------|
E  :------------------------------------------------------|
B  :------------------------------------------------------|
       s    spsp s s    s p p    s    spspspp s  s    p
            
Submit corrections

comments powered by Disqus
↑ Back to top | 311 Bass for Offbeat Bare-Ass. Lyrics for acoustic guitar and electric guitar. Tablatures and chords are parodies/interpretations of the original songs. You may use it for private study, scholarship, research or language learning purposes only