» »

/0-9/311-tabs-28.html

»

311, Mindspin Tabs (ver.2)

Artists:  A B C D E F G H I J K L M N O P Q R S T U V W X Y Z # 

Mindspin Tabs (ver.2)

311 Tabs
 Rating:
4/5 (4 votes)
Mindspin lessons Tabs too difficult? Try these video lessons and learn fast
1
                "Mindspin" by 311
Music by:  C. Sexton, and Lyrics by:  N. Hexum & D. Martinez

NOTE: On the album, this is played using a 7-string guitar. To play on a 
standard guitar, tune guitar's lowest 3 strings down 5 frets. Thanks to the 
version 1 tab for a couple riff ideas. Please rate my tab or comment so I
can upload the best quality tabs.

Verse Part 1:
========
   B5    E5    F#5
e|--------------------------------|----------------------------------|
b|--------------------------------|----------------------------------|
G|--------------------------------|----------------------------------|
D|--------------------------------|----------------------------------|
A|--------------------------------|----------------------------------|
E|-------7-----9---9-9-9----------|-------7-----9---9-9-9----7---7\--|
B|-0-0-0-5-0-0-7---7-7-7-9--7--7--|-0-0-0-5-0-0-7---7-7-7--9---9-----|



Verse Part 2, played 4x:
========
   B5    E5      F#5     G#5
1:-------------------------------------|
2:-------------------------------------|
3:-------------------------------------|
4:-------------------------------------|
5:-------7-7-7-7-9-9-9-9-12\11-11-11---|
6:-0-0-0-5-5-5-5-7-7-7-7-10\9--9--9--0-|

Chorus:
=======
   play this 3x                   4th bar:
e|-------------------------|       --------------------------|
b|-------------------------|       --------------------------|
G|-------------------------|       --------------------------|
D|-------------------------|       --------------------------|
A|-------------------------|       --------------------------|
E|---7---------------------|       ----7---------------------|
B|-9------9p7-5--5--5--5h7-|       --9------9p7-7--9p7--9p7--|
  

   play this 3x                   8th bar:
e|------------------------|       ----------------------------|
b|------------------------|       ----------------------------|
G|------------------------|       ----------------------------|
D|------------------------|       ----------------------------|
A|------------------------|       ----------------------------|
E|-------------7----------|       ----------------------------|
B|-5--5--5h7-9-------9p7--|       -5--5--5-9p7---5-5-5--2-2-2-|



Play Verse Riffs and Chorus again

Play Chorus again


Bridge (chords implided by guitar 2):
=======
  Guitar 1 (Dist)
   G#maj7                  F#add2                D(b5)
e|-----------|-----------|-----------|--------------|
b|-----------|-----------|-----------|--------------|
G|-----------|-----------|-----------|--------------|
D|-6---------|-(6)-------|-4---------|-(4)----------|
A|-6---------|-(6)-------|-4---------|-(4)-------5--|
E|-4---------|-(4)-------|-2---------|-(2)-------4--|
B|-----------|-----------|-----------|-----------3--|
 |
 | Guitar 2 (w/flanger effect)  
e|-3---------|--3--------|--4--------|-(4)----------|
B|-4---------|--4--------|--2--------|-(2)----------|
G|-5---------|--5--------|--3--------|-(3)----------|
D|-----------|-----------|-----------|--------------|
A|-----------|-----------|-----------|--------------|
E|-----------|-----------|-----------|--------------|
  sometimes chords are played as arpeggios (plucked one note at a time)


Ending Part:
Guitar 1 plays this 4x, but Bass continues this riff to the end
e|----------------------|----------------------|
b|----------------------|----------------------|
G|----------------------|----------------------|
D|----------------------|----------------------|
A|-3p1-3p1--------------|-3p1-3p1--------------|
E|---------4------------|---------4------------|
B|-----------4--2--4----|-----------4--2--4----|

  
e|----------------------|----------------------|
b|----------------------|----------------------|
G|----------------------|----------------------|
D|----------------------|----------------------|
A|----------------------|----------------------|
E|-6p4-6p4\2------------|-6p4-6p4\2------------|
B|-----------4--2--4----|-----------2--2--1----|

During ending part, Guitar 2 continues playing the 
bridge chords during and after Guitar 1 plays.


End
            
Submit corrections

comments powered by Disqus
↑ Back to top | 311 Tabs for Mindspin. Lyrics for acoustic guitar and electric guitar. 1 Tablatures and chords are parodies/interpretations of the original songs. You may use it for private study, scholarship, research or language learning purposes only