>
 >
 >
Lose 1

Lose 1 Guitar Tabs

311 - Lose 1 chords, tabs, tablatures, lyrics

Guitar lessons | Add/correct | Request | Top 50 tabs Artists:  A B C D E F G H I J K L M N O P Q R S T U V W X Y Z 0-9

Lose 1 Guitar Tabs – 311

CD, Sheet music, Poster

Do you like Lose 1? Share with your friends now
Bass TabsTabsTabs v2
311 - Lose

Intro/Riff 1:


Dm7 Bbm Dm7 Bbm D#

1:-5-5-5-5--6-6-6-6--5-5-5-5--6-6-6-6-----------------
2:-6-6-6-6--6-6-6-6--6-6-6-6--6-6-6-6--8-8--8--8-8--8-
3:-5-5-5-5--6-6-6-6--5-5-5-5--6-6-6-6--8-8--8--8-8--8-
4:-7-7-7-7--8-8-8-8--7-7-7-7--8-8-8-8--8-8--8--8-8--8-
5:-5-5-5-5--8-8-8-8--5-5-5-5--8-8-8-8--6-6--6--6-6--6-
6:----------6-6-6-6-----------6-6-6-6-----------------
   F#              Dm7      N.C.           A
1:-2-2--2--2-2--2--5-5-5-5-----------------5-
2:-2-2--2--2-2--2--6-6-6-6--------6--------5-
3:-3-3--3--3-3--3--5-5-5-5------5---5------6-
4:-4-4--4--4-4--4--7-7-7-7----7-------7----7-
5:-4-4--4--4-4--4--5-5-5-5--5-----------7--7-
6:-2-2--2--2-2--2--------------------------5-Chorus:


 

F Gm

1:-1-1--1-1--1-1--1-1---3-3--3-3--3-3--3-3-
2:-1-1--1-1--1-1--1-1---3-3--3-3--3-3--3-3-
3:-2-2--2-2--2-2--2-2---3-3--3-3--3-3--3-3-
4:-3-3--3-3--3-3--3-3---5-5--5-5--5-5--5-5-
5:-3-3--3-3--3-3--3-3---5-5--5-5--5-5--5-5-
6:-1-1--1-1--1-1--1-1---3-3--3-3--3-3--3-3-
D7sus2/A Bb Am Bb A

1:-5--5--5-5--5--5-6--6--6-6--6--6-5--5--5-5--5--5-6--6--6-6-5-
2:-5--5--5-5--5--5-6--6--6-6--6--6-5--5--5-5--5--5-6--6--6-6-5-
3:-5--5--5-5--5--5-7--7--7-7--7--7-5--5--5-5--5--5-7--7--7-7-6-
4:-7--7--7-7--7--7-8--8--8-8--8--8-7--7--7-7--7--7-8--8--8-8-7-
5:-5--5--5-5--5--5-8--8--8-8--8--8-7--7--7-7--7--7-8--8--8-8-7-
6:-5--5--5-5--5--5-6--6--6-6--6--6-5--5--5-5--5--5-6--6--6-6-5-Solo 1:

 
F6 N.C.
1:-10-13-12-10-12-10--------------------------------------------------
2:-10----------------10-11--------------------------------------------
3:-10----------------------10-12-b12bp10-12p10----10-12-10-b12b-10----
4:---------------------------------------------12------------------12-
5:--------------------------------------------------------------------
6:--------------------------------------------------------------------


N.C.
1:------------------------------------10-12-13//15-13-12h13p12-
2:---------------------------10-11-11--------------------------
3:----------------10-12-b12b-----------------------------------
4:----------10-12----------------------------------------------
5:-10h11h12----------------------------------------------------
6:-------------------------------------------------------------


N.C.
1:-------11-13-11-15-13-11------9-11-9-11-13-14-13-11-
2:-11-13-------------------9-11-----------------------
3:----------------------------------------------------
4:----------------------------------------------------
5:----------------------------------------------------
6:----------------------------------------------------
   F6 N.C.                   (F6/A)         N.C. A5(add F) F6
1:-10------------------------------------10-13---12---12---10-
2:-10-12-10-b12b----------------------10----10---10---10---10-
3:-10-12-10-b12b-10-12p10----------10-------10---10---10---10-
4:------------------------12----10----------------------------
5:---------------------------12-------------------------------
6:------------------------------------------------------------* (Let last two chords ring.)


Fill 1:

 
N.C.
1:----------------------------
2:----------------------------
3:----------------------------
4:----------------------------
5:-0-3-5--0-3-5----1-1----1-1-
6:---------------1------1-----Solo 2:

 
N.C.
1:-----------------15-16-15-----------------13-14-13-------
2:-15--16-15-16-18----------18--14-13-14-16----------16-14-
3:-17b-----------------------------------------------------
4:---------------------------------------------------------
5:---------------------------------------------------------
6:---------------------------------------------------------


N.C.
 
2:-15-17-18-17-15-17-18-17-15--18p17p15-18p17p15-18p17p15-18p17p15-
 
 
 
 
N.C.
1:------------------------------------------------------------------
2:-18p17p15-18p17p15--18b--20b--18-17-15----15-------18-17-15-17-18-
3:---------------------------------------17----12-14----------------
4:------------------------------------------------------------------
5:------------------------------------------------------------------
6:------------------------------------------------------------------


N.C.
1:-15-17-20-b20b-17-------------------------------------17-15p13----13-
2:------------------18-17-15----15-------18-17-15-17-18----------17----
3:---------------------------17----12-14-------------------------------
4:---------------------------------------------------------------------
5:---------------------------------------------------------------------
6:---------------------------------------------------------------------


N.C.
1:----------11-10-8----------------------------------------------9-11-
2:-17-15-13---------11-9-8-------------------------------9-11-13------
3:-------------------------10-8-7----------------8-10-11--------------
4:--------------------------------8-10-11-----------------------------
5:----------------------------------------8-9-11----------------------
6:--------------------------------------------------------------------

N.C.
1:-13//14-13-11-10-------------------------------------------------
2:-----------------b17bp15-b16bp14-b15bp13-b14bp12-b13bp11-b12bp10-
3:-----------------------------------------------------------------
4:-----------------------------------------------------------------
5:-----------------------------------------------------------------
6:-----------------------------------------------------------------


N.C.
1:-------------------
2:-b11bp9-b10bp8-b9b-
3:-------------------
4:-------------------
5:-------------------
6:-------------------Ending Solo:

 
N.C.
1:-------------------------------------------------------
2:-18-17-15----------------------------------------------
3:----------17-15-14----14-17-14----------------12h14h15-
4:-------------------15----------15----12h14h15----------
5:----------------------------------15-------------------
6:-------------------------------------------------------


N.C.


1:----------13-15-17-15-13----13------------------
2:-13-15-17----------------17----17-15-13---------
3:----------------------------------------14-b14b-
4:------------------------------------------------
5:------------------------------------------------
6:------------------------------------------------


Sir Pannels





Comments


Popular 311 tabs & chords
1, 2, 3 1 Bass Tabs
Creature Feature Into Bass Tabs
Creature Feature Into 1 Bass Tabs
Livin' & Rockin' Bass Tabs
Prisoner 1 Bass Tabs
Salsa 1 Bass Tabs
Space Funk 2 Bass Tabs
What Was I Thinking? 1 Bass Tabs
Love Song 1 Chords
Take My Money Tabs


Song lyrics



↑ Back to top | Tablatures and chords are parodies/interpretations of the original songs. You may use it for private study, scholarship, research or language learning purposes only
© 2014 AZChords.com Contact us | Privacy policy | DMCA | Add/correct tabs | Request tabs | Top 50 tabs