>
 >
 >
Jackpot

Jackpot Guitar Tabs

311 - Jackpot chords, tabs, tablatures, lyrics

Guitar lessons | Add/correct | Request | Top 50 tabs Artists:  A B C D E F G H I J K L M N O P Q R S T U V W X Y Z 0-9

Jackpot Guitar Tabs – 311

CD, Sheet music, Poster

Do you like Jackpot? Share with your friends now
Tabs
Tuning: standard

Intro:
e|----------------------------------|
B|----------------------------------|
G|----------------------------------|
D|---7---9--7--6--------------------|
A|---7---9--7--6--------------------|
E|---5---7--5--4h5p4h5p4h5p4--------|

Verse 1: x2
e|---------------------------------------|    ----------------------------------------------|
B|---------------------------------------|    ----------------------------------------------|
G|---------------------------------------|    ----------------------------------------------|
D|---4-4--------7-7-7-6-6-5-5-5-4-4-2-2--|X3  --4-4--4-4-4-4---7-7-7-6-6-5-5-5-4-4-2-x-2----|
A|---4-4---------------------------------|    --4-4--4-4-4-4---7-7-7-6-6-5-5-5-4-4-2-x-2----|
E|---2-2--------5-5-5-4-4-3-3-3-2-2-0-0--|    --2-2--2-2-2-2---5-5-5-4-4-3-3-3-2-2-0-x-0----|
                                           PM        . . . .

Verse 2:
Guitar 1:
e|------------------------------------------------------------------|
B|------------------------------------------------------------------|
G|------------------------------------------------------------------| x4
D|---4-4-4-4-4--7-7--4-4-4-4-4-5-5--4-4-4-4-4--7-7--4-4--5\4-5\4----|
A|---4-4-4-4-4--7-7--4-4-4-4-4-5-5--4-4-4-4-4--7-7--4-4--5\4-5\4----|
E|---2-2-2-2-2--5-5--2-2-2-2-2-3-3--2-2-2-2-2--5-5--2-2--3\2-3\2----|

Guitar 2:
e|-------------------------|
B|-------------------------|
G|----------9--8-----------|x4 
D|------7-----------7------|
A|---9-----------------7---|
E|-------------------------|

Pre-Chorus:
Guitar 1:
e|------------------------------------------------------------|
B|------------------------------------------------------------|
G|------------------------------------------------------------|
D|--4--2-4--2-4-2-4--2-4--2-4-2-4--2-4--2-4-2-4--2-4--2-4-2---|
A|--4--2-4--2-4-2-4--2-4--2-4-2-4--2-4--2-4-2-4--2-4--2-4-2---|
E|--2--0-2--0-2-0-2--0-2--0-2-0-2--0-2--0-2-0-2--0-2--0-2-0---|

Guitar 2:
e|------------------------------------------------------------|
B|--------------------------------------------5--4-5--4-5-4---|
G|------------------------------6--4-6--4-6-4-----------------|
D|--4--2-4--2-4-2-7--6-7--6-7-6-------------------------------|
A|------------------------------------------------------------|
E|------------------------------------------------------------|

Chorus:
e|------------------------------------------|
B|------------------------------------------|
G|------------------------------------------|
D|--7-7-7-7--11\--5x5x5-x4x4-4--5-5-5-5-5---|x3
A|--7-7-7-7-------5x5x5-x4x4-4--5-5-5-5-5---|
E|--5-5-5-5--9\---3x3x3-x2x2-2--3-3-3-3-3---|

e|-------------------------------------------|
B|-------------------------------------------|
G|-------------------------------------------|
D|--7-7-7-7--11\--5x5x5-x4x4-4--5-5-5-5-4-2--|
A|--7-7-7-7-------5x5x5-x4x4-4--5-5-5-5-4-2--|
E|--5-5-5-5--9\---3x3x3-x2x2-2--3-3-3-3-2-0--|

Verse 1
Verse 2
Pre-chorus
Chorus x2
Verse 1
Pre-chorus

End on:
e|--------|
B|--------|
G|---8~---|
D|---8~---|
A|---6~---|
E|---6~---|

| /  slide up
| \  slide down
| h  hammer-on
| p  pull-off
| x  Mute note





Comments


Popular 311 tabs & chords
Can't Fade Me 1 Bass Tabs
Fat Chance Bass Tabs
Fuck The Bullshit Bass Tabs
Running Bass Tabs
Tribute 2 Bass Tabs
Flowing Chords
Sunset In July 1 Chords
Give Me A Call 1 Tabs
Its Alright Intro Tabs
Random 2 Tabs


Song lyrics



↑ Back to top | Tablatures and chords are parodies/interpretations of the original songs. You may use it for private study, scholarship, research or language learning purposes only
© 2014 AZChords.com Contact us | Privacy policy | DMCA | Add/correct tabs | Request tabs | Top 50 tabs