» »

/0-9/311-tabs-28.html

»

311, I Told Myself Tabs (ver.2)

Artists:  A B C D E F G H I J K L M N O P Q R S T U V W X Y Z # 

I Told Myself Tabs (ver.2)

311 Tabs
 Rating:
4/5 (4 votes)
I Told Myself lessons Tabs too difficult? Try these video lessons and learn fast
1
                Ok, I admit I had some help on the intro, but the rest is mine!!!!!! and I didn't steal the intro from some other dude or tab book, I had my guitar teacher help me!

Intro:
e/-----10-8-------
B/----------10----
G/-------------9--
D/----------------
A/----------------  repeat
E/----------------

e/--10----8------8-------------10-8--
B/----------11------11-10--10--------
G/-----------------------------------
D/-----------------------------------
A/-----------------------------------
E/----------------------------------- repeat

Verse:
e/----------------------
B/----------------------
G/----------------------
D/---7-5-7-5-2-33-2-33--
A/---7-5-7-5-2-33-2-33--
E/---5-3-5-3-0-11-0-11--

Bridge:
e/----------------------
B/----------------------
G/----------------------
D/--3-555-5/6-5-3-33333-
A/--3-555-5/6-5-3-33333-
E/--3-555-5/6-5-3-33333-

Chorus:
e/-------------------------
B/-------------------------
G/-------------------------
D/---2--9-76--2-2--9--7-6--
A/---2--9-76--2-2--9--7-6--
E/---0--7-54--0-0--7--5-4--   Note: notice tempo change!!!

Bridge:
e/----10-8--------
B/----------10----
G/-------------9--
D/----------------
A/----------------
E/----------------

Then repeat the whole step above (cept the intro)
then this.... I not sure what this is called but it happens when Nick sings "now it's all gone bad, gone, bad... Before you make me jelous"
e/--------------------------------------------
B/--------------------------------------------
G/--------------------------------------------
D/---7-7-7-7----5-5-5-5---7-7-7-7---9-9-9-9---
A/---7-7-7-7----5-5-5-5---7-7-7-7---9-9-9-9---
E/---5-5-5-5----3-3-3-3---5-5-5-5---7-7-7-7---

"remember what you had, you had"
e/-------------------------------------
B/-------------------------------------
G/-------------------------------------
D/--7777777777777777--9999999999999999-
A/--7777777777777777--9999999999999999-
E/--5555555555555555--7777777777777777-
    xxxxxxxxxxxxxxxx  xxxxxxxxxxxxxxxx

then repeat chorus when he sings "rain comes down as love turns to dust, I was joking she took me serious"
            
Submit corrections

comments powered by Disqus
↑ Back to top | 311 Tabs for I Told Myself. Lyrics for acoustic guitar and electric guitar. 1 Tablatures and chords are parodies/interpretations of the original songs. You may use it for private study, scholarship, research or language learning purposes only