» »

/0-9/311-tabs-28.html

»

India Ink Bass tabs (ver.1)

Artists:  A B C D E F G H I J K L M N O P Q R S T U V W X Y Z # 

India Ink Bass tabs (ver.1)

311
Rating:
0/5 (0 votes)

Tabs too difficult? Try these video lessons and learn fast.
                311 - India Ink
5 string Bass standard tuning

Pnut has a heavy sounding bass with active pickups so a clear yet heavy tone is 


Please rate or comment



Main Riff

   play 4x
G|-3/5----3-3/5----|
D|-----------------|
A|-1/3----1-1/3----|
E|-----------------|
B|-----------------|

  bars 5 & 6
|-3---3--x-x-3--x-x-3-x-x-x-x-|-3---3--x-x-3--x-x-3---3-3-3-|
|-----------------------------|-----------------------------|
|-1---1--x-x-1--x-x-1-x-x-x-x-|-1---1--x-x-1--x-x-1---1-1-1-|
|-----------------------------|-----------------------------|
|-----------------------------|-----------------------------|



Repeat main riff



Chorus - play 4x with slight rhythm variation on 3rd time

G|-----------------|-----------------|
D|-----------------|-----------------|
A|-----------------|-----------------|
E|---------1-1-1-1-|-----------------|
B|-4-4-4-4---------|-1-1-1-1-1-1-1-1-|




Play Main Riff Again 2x



Play Chorus

End Chorus on 5 more C notes 

|---------------|
|---------------|
|---------------|
|---------------|
|-1-1-1-1-1-----|




Bridge (2:06) - play 4x

G|-----------------|-----------------|
D|-----------------|-----------------|
A|-----------------|-----------------|
E|-1-1-1-1---------|-----------------|
B|---------4-4-4-4-|-1-1-1-1-1-1-1-1-|



Bridge Part 2 (2:28) - play 4x

G|---------------------|------------------|
D|---------------------|------------------|
A|------3-3-------6-6--|------------------|
E|-3-3-------6-6-------|-3-3----3-3-3-----|
B|---------------------|------------------|




Play Chorus Again 2x, and end song similar to Chorus #2


Key:

/ = slide
x = muted string 
            
Tabs too difficult? Try these video lessons and learn fast.


comments powered by Disqus
↑ Back to top | Tablatures and chords are parodies/interpretations of the original songs. You may use it for private study, scholarship, research or language learning purposes only