» »

/0-9/311-tabs-28.html

»

311, India Ink Tabs (ver.1)

Artists:  A B C D E F G H I J K L M N O P Q R S T U V W X Y Z # 

India Ink Tabs (ver.1)

311 Tabs
 Rating:
4/5 (4 votes)
India Ink lessons Tabs too difficult? Try these video lessons and learn fast
                311
Drop D Tunning

+++Intro (Palm Mute)++++++++++++++++++++++++++++++++
e|------------------------------|
B|------------------------------|
G|------------------------------|
D|-------3h5-5-5-5-5-5-5-5------|
A|-------3h5-5-5-5-5-5-5-5------|
D|-------3h5-5-5-5-5-5-5-5------| x3

e|-------------------------|
B|-------------------------|
G|-------------------------|
D|-------3h5-5-5-5-5-------|
A|-------3h5-5-5-5-5-------|
D|-------3h5-5-5-5-5-------|


+++Verse -x2+++++++++++++++++++++++++++++++++++++++++
e|-----------------------|
B|-----------------------|
G|-----------------------|
D|-----3h5---3-3h5-------|
A|-----3h5---3-3h5-------|
D|-----3h5---3-3h5-------| x4

(Tricky timing here, but listen and you'll catch on)
e|-----------------------------------|
B|-----------------------------------|
G|-----------------------------------|
D|--x-x-8-x-8-8-8-x-x-8-x-x-8-x-8-x--|
A|--x-x-8-x-8-8-8-x-x-8-x-x-8-x-8-x--|
D|--x-x-8-x-8-8-8-x-x-8-x-x-8-x-8-x--| x2


+++Chorus (Timing on the 10's and mutes is a little tricky, just listen for it and 
get it)
e|----------------------------------------------|
B|----------------------------------------------|
G|----------------------------------------------|
D|--1-1-1-1---3-3-3-3---10-10-10-10-10-10-10-10-|
A|--1-1-1-1---3-3-3-3---10-10-10-10-10-10-10-10-|
D|--1-1-1-1---3-3-3-3---10-10-10-10-10-10-10-10-|

e|----------------------------------------------|
B|----------------------------------------------|
G|----------------------------------------------|
D|--1-1-1-1---3-3-3-3---10-10-10-10-10-xx-10-xx-|
A|--1-1-1-1---3-3-3-3---10-10-10-10-10-xx-10-xx-|
D|--1-1-1-1---3-3-3-3---10-10-10-10-10-xx-10-xx-|

e|---------------------------------------------------|
B|---------------------------------------------------|
G|---------------------------------------------------|
D|--1-1-1-1---3-3-3-3---10-x-10-10-x-10-10-10-10-x-x-|
A|--1-1-1-1---3-3-3-3---10-x-10-10-x-10-10-10-10-x-x-|
D|--1-1-1-1---3-3-3-3---10-x-10-10-x-10-10-10-10-x-x-|

e|----------------------------------------------|
B|----------------------------------------------|
G|----------------------------------------------|
D|--1-1-1-1---3-3-3-3---10-10-10-10-10-10-10-10-|
A|--1-1-1-1---3-3-3-3---10-10-10-10-10-10-10-10-|
D|--1-1-1-1---3-3-3-3---10-10-10-10-10-10-10-10-|


+++Chorus End++++++++++++++++++++++++++++++++++++++++++
e|----------------|
B|----------------|
G|----------------|
D|-10-10-10-10-10-|
A|-10-10-10-10-10-|
D|-10-10-10-10-10-|


Verse - x2

Chorus

+++Bridge - It's either an actual Sitar (spelling?) or a keyboard set to sound like one, 
I figured why not go ahead and tab it out here.
e|----------------------|
B|----------------------|
G|---12-10-9-10-12-10-9-|
D|----------------------|
A|----------------------|
D|----------------------|

e|------------------------------------|
B|------------------11-10-------------|
G|---12-10-9-10-12---------12-9-------|
D|------------------------------------|
A|------------------------------------|
D|------------------------------------|

e|-----------------------------------------------|
B|-----------------------------------------------|
G|---12-10-9-10-12-10-9-9/5---7--5--5--5-5-5-5-5-|
D|-----------------------------------------------|
A|-----------------------------------------------|
D|-----------------------------------------------|


+++"Breakdown"+++++++++++++++++++++++++++++++++++++++++++++++=
e|----------------------------|
B|----------------------------|
G|----------------------------|
D|---17-/-5-------------------|
A|---17-/-5-------------------|
D|---17-/-5-------------------|

e|----------------------------------------------|
B|----------------------------------------------|
G|---------------------------8-8----------------|
D|----5-5----10-10----8-8----8-8----3h5---5-5-5-|
A|----5-5----10-10----8-8----6-6----3h5---5-5-5-|
D|----5-5----10-10----8-8-----------3h5---5-5-5-| x4


Chorus - x2

Chorus End (let ring)
            
Submit corrections

comments powered by Disqus
↑ Back to top | 311 Tabs for India Ink. Lyrics for acoustic guitar and electric guitar. Tablatures and chords are parodies/interpretations of the original songs. You may use it for private study, scholarship, research or language learning purposes only