» »

/0-9/311-tabs-28.html

»

311, Hostile Apostle Bass tabs (ver.1)

Artists:  A B C D E F G H I J K L M N O P Q R S T U V W X Y Z # 

Hostile Apostle Bass tabs (ver.1)

311 Tabs
 Rating:
4/5 (4 votes)
Hostile Apostle  lessons Tabs too difficult? Try these video lessons and learn fast
1
                (2)
311
Hostile Apostle



Riff 1 (w/distortion):
G:------------------------------------
D:------------------------------------
A:------------------------------------
E:-3-3-3--1-1-1-1-1--4-4-4--3-3-3-3-3-
B:------------------------------------

Riff 2:
G:------------------------------------------
D:------------------------------------------
A:------------------------------------------
E:-1--1-1-1-1--1-1-1-1--1-1-1-1---1-1--5--1-
B:------------------------------------------

G:-----------------------------------------
D:-----------------------------------------
A:-----------------------------------------
E:-0--0-0-0-0--0-0-0-0--0-0-0-0--0-0--4--0-
B:-----------------------------------------

Riff 3a:
G:-----------
D:-------3-3-
A:-----------
E:-1-1-1-----
B:-----------

Riff 3b:
G:------------
D:--------2-2-
A:------------
E:-0-0-0------
B:------------

Riff 4a:
G:---------------------------
D:---------------------------
A:-----2-5-4---4-------------
E:-0-3-----------5-3-5-3-2-3-
B:---------------------------

Riff 4b:
G:-----------------------------
D:-----------------------------
A:-----2-5-4-------------------
E:-0-3--------5--5-3-2-3-2-0-2-
B:-----------------------------
            
Submit corrections

comments powered by Disqus
↑ Back to top | 311 Bass for Hostile Apostle. Lyrics for acoustic guitar and electric guitar. 1 Tablatures and chords are parodies/interpretations of the original songs. You may use it for private study, scholarship, research or language learning purposes only