>
 >
 >
Hostile Apostle 1

Hostile Apostle 1 Guitar Tabs

311 - Hostile Apostle 1 chords, tabs, tablatures, lyrics

Guitar lessons | Add/correct | Request | Top 50 tabs Artists:  A B C D E F G H I J K L M N O P Q R S T U V W X Y Z 0-9

Hostile Apostle 1 Guitar Tabs – 311

CD, Sheet music, Poster

Do you like Hostile Apostle 1? Share with your friends now
TabsTabs v2

Standard Tuning (E-A-D-G-B-E)


Intro (with some sort of weird effect)

E-----------------------------------------------------------------
A-----------------------------------------------------------------
D-----------------------------------------------------------------
G-------3--------------5-2-2h3p2--------3--------------5-5b-5-----
B-----2---3-0--------3----------------2---3-0--------3------------
E--/3---------1----4----------------3---------1----4--------------


E-----------------------------------------------------------------
A-----------------------------------------------------------------
D-----------------------------------------------------------------
G-------3-5---3--------5-2-2h3p2--------3-5---5--------5-5b-5-----
B-----2-----3--------3----------------2-----3--------3------------
E--/3--------------4----------------3--------------4--------------


Verse (I can't free myself of the suspicion...)

E-----------------------------------------------------------------
B-----------------------------------------------------------------
G-----------------------------------------------------------------
D--3---3-3-3---3-3-3---3-3-3---3-3-7-3----------------------------
A--3---3-3-3---3-3-3---3-3-3---3-3-7-3----------------------------
E--1---1-1-1---1-1-1---1-1-1---1-1-5-1----------------------------

E-----------------------------------------------------------------
B-----------------------------------------------------------------
G-----------------------------------------------------------------
D--2---2-2-2---2-2-2---2-2-2---2-2-7-2----------------------------
A--2---2-2-2---2-2-2---2-2-2---2-2-7-2----------------------------
E--0---0-0-0---0-0-0---0-0-0---0-0-5-0----------------------------


Verse 2 (Hostile Apostle...)

E-----------------------------------------------------------------
B-----------------------------------------------------------------
G-----------------------------------------------------------------
D--3---3-3-3-3-3--3---3-3-3-3--3----3---3-3-3-3-3--3---3-3-3-3--3-
A--3---3-3-3-3--------3-3-3---------3---3-3-3-3--------3-3-3------
E--1---1-1-1-1--------1-1-1---------1---1-1-1-1--------1-1-1------


E------------------------------------------------------------------
B------------------------------------------------------------------
G------------------------------------------------------------------
D--2---2-2-2-2-2--2---2-2-2-2--2----2---2-2-2-2-2--2---2-2-2-2--2--
A--2---2-2-2-2--------2-2-2---------2---2-2-2-2--------2-2-2-------
E--0---0-0-0-0--------0-0-0---------0---0-0-0-0--------0-0-0-------


Chorus (Angry human leads questionable boy...)

E------------------------------------------------------------------
B------------------------------------------------------------------
G------------------------------------------------------------------
D--5-------3-----------7-------5----------------------------------- x2
A--5-------3-----------7-------5-----------------------------------
E--3-------1-----------5-------3-----------------------------------


E------------------------------------------------------------------
B------------------------------------------------------------------
G------------------------------------------------------------------
D--5-5-5---3-3-3-3-3---7-7-7---5-5-5-5-5--------------------------- x2
A--5-5-5---3-3-3-3-3---7-7-7---5-5-5-5-5---------------------------
E--3-3-3---1-1-1-1-1---5-5-5---3-3-3-3-3---------------------------


End Fill (Changin' all the time, we changin' all the same...)

E------------------------------------------------------------------
B------------------------------------------------------------------
G------------------------------------------------------------------
D------------------------------------------------------------------ x2
A--------5-4-xxxx-5----------------------5-4-xxxx-5----------------
E--0-3-5-----xxxx---5-3-5-3-2-3----0-3-5-----xxxx---5-3-5-3-2-3----


E------------------------------------------------------------------
B------------------------------------------------------------------
G------------------------------------------------------------------
D------------------------------------------------------------------ x2
A--------5-4--0--0----------------------5-4--0--0------------------
E--0-3-5-----------3-2-3-2-0-2----0-3-5-----------3-2-3-2-0-2------


Song Structure
Intro    x1
Verse    x4
Verse-2  x2
Chorus   x1
Verse-2  x2
Chorus   x1
End Fill x1
Intro    x1


Lyrics

(Verse)
I can't free myself of the suspicion
For your motives on your mission
Some people live for the rules
I live for exceptions
Can't take part in the deception
But I know just how it feels
To wanna blow the world away
Just to get to what is real
It won't work cuz

Everybody grinds to a halt now and then
Everybody's game gets salt then again
No matter what the papers say they're normal as they come
Bodyguards, ball of wax, they hide behind the gun
They get a panic pulse when they are so far from home
To me that is the reason to continue to roam
Exhilaration mix with the people skunk blazing
Checking out the shows that are sadly unamazing

(Verse-2)
Hostile Apostle
Who you following
Negative energy
That you're swallowing
Some coked out malcontent
Who's soul is up for rent
Victim of lost soul
Hostile Apostle

Unlimited in time and space and nearest universal
Light is what we're reachin for it's not rehearsal
Follow this around
Follow this hustle
Makin' use of everything movin' all your muscle

(Chorus)
Angry human leads impressionable boy
To skulls and piercings and will to destroy
All of your heroes speak nothing to me
One emotion one tempo and no real feeling

(Verse-2)
In this field we are the presence of thoughts you're missin'
Keepin' positive's intact from all the people dissin'
Open your eyes look at who you're kissin'
If you can't hear it people just listen

Hostile Apostle
Who you following
Negative energy
That you're swallowing
Some coked out malcontent
Who's soul is up for rent
Victim of lost soul
Hostile Apostle

(Chorus)
Angry human leads impressionable boy
To skulls and piercings and will to destroy
All of your heroes speak nothing to me
You don't have to be a prick just to be heavy

(End Fill)
Changin' all the time
We changin' all the same
Change in this life
And in this eternal frame
Warm in the sun
Refresh in the breeze
Glow in the stars
Blossom in the trees
Livin' through life
In infinite extent
Spread undivided
Operate unspent
No high no low
No great and no small
Build and bound
Connect and equal all





Comments


Popular 311 tabs & chords
Independence Day Bass Tabs
Its Alright Bass Tabs
Offbeat Bare Ass 4 Bass Tabs
Random Bass Tabs
Random 2 Bass Tabs
Slinky Girl Bass Tabs
Come Original Tabs
Its Alright Tabs
Slinky Tabs
Tune In Tabs


Song lyrics



↑ Back to top | Tablatures and chords are parodies/interpretations of the original songs. You may use it for private study, scholarship, research or language learning purposes only
© 2014 AZChords.com Contact us | Privacy policy | DMCA | Add/correct tabs | Request tabs | Top 50 tabs