» »

/0-9/311-tabs-28.html

»

Guns (Are For Pussies) Tabs (ver.2)

Artists:  A B C D E F G H I J K L M N O P Q R S T U V W X Y Z # 

Guns (Are For Pussies) Tabs (ver.2)

311
Rating:
0/5 (0 votes)

Hard to play? Try these video lessons and learn fast.
                Guns  
311 


This is what I've comes up with. I think it sounds pretty closes. There's a few rhythmic variations  
that aren't precisely tabbed, but it all sounds the same anyway. Rock on. 




"Here comes the thunder..." 

4X 

------------------------------------------------------------------- 
------------------------------------------------------------------- 
-----6---6-7---7-----6---6-7---7----------------------------------- 
-----6---6-7---7-----6---6-7---7-------4---4-5---5-----4---4-5---5- 
---0-4-0-4-5---5---0-4-0-4-5---5-------4---4-5---5-----4---4-5---5- 
-------------------------------------0-2-0-2-3---3---0-2-0-2-3---3- 



"It's gettin' hectic..." 

2X 

----------------------------------------------------------------- 
----------------------------------------------------------------- 
-------------------4-------------------------------4------------- 
---3---5-----5-5---4---5-----5-5---3---5-----5-5---4---5---5-5-5- 
---3---5-----5-5---2---5-----5-5---3---5-----5-5---2---5---5-5-5- 
---1---3-----3-3-------3-----3-3---1---3-----3-3-------3---3-3-3- 



----------------------------------------------------------------- 
----------------------------------------------------------------- 
-------------------4-------------------------------5---7---4----- 
---3---5-----5-5---4---5-----5-5---3---5-----5-5---5---5---4---5- 
---3---5-----5-5---2---5-----5-5---3---5-----5-5---3---5---2---5- 
---1---3-----3-3-------3-----3-3---1---3-----3-3---------------3- 


4X 

------------------------------------------------------------------- 
------------------------------------------------------------------- 
---2-2-2-2---2---------------------2-2-2-2---2--------------------- 
---2-2-2-2---2---------------------2-2-2-2---2--------------------- 
---0-0-0-0---0---------------------0-0-0-0---0--------------------- 
-----------------2-3-2-3-3---2---0---------------2-3-2-3-3---2---0- 



"I'm not from Philly..." 

4X 

------------------------------------------------------------------- 
------------------------------------------------------------------- 
-----6---6-7---7-----6---6-7---7----------------------------------- 
-----6---6-7---7-----6---6-7---7-------4---4-5---5-----4---4-5---5- 
---0-4-0-4-5---5---0-4-0-4-5---5-------4---4-5---5-----4---4-5---5- 
-------------------------------------0-2-0-2-3---3---0-2-0-2-3---3- 


2X 

----------------------------------------------------------------- 
----------------------------------------------------------------- 
-------------------4-------------------------------4------------- 
---3---5-----5-5---4---5-----5-5---3---5-----5-5---4---5---5-5-5- 
---3---5-----5-5---2---5-----5-5---3---5-----5-5---2---5---5-5-5- 
---1---3-----3-3-------3-----3-3---1---3-----3-3-------3---3-3-3- 



----------------------------------------------------------------- 
----------------------------------------------------------------- 
-------------------4-------------------------------5---7---4----- 
---3---5-----5-5---4---5-----5-5---3---5-----5-5---5---5---4---5- 
---3---5-----5-5---2---5-----5-5---3---5-----5-5---3---5---2---5- 
---1---3-----3-3-------3-----3-3---1---3-----3-3---------------3- 



4X 

------------------------------------------------------------------- 
------------------------------------------------------------------- 
---2-2-2-2---2---------------------2-2-2-2---2--------------------- 
---2-2-2-2---2---------------------2-2-2-2---2--------------------- 
---0-0-0-0---0---------------------0-0-0-0---0--------------------- 
-----------------2-3-2-3-3---2---0---------------2-3-2-3-3---2---0- 


2X 

------------------------------------------------------------------------------------------------- 
------------------------------------------------------------------------------------------------- 
---7---7---7---6-7-7-6-7---7---7---7---6-7-7-6-7---9---9---9---8-9-9-8-9---9---9---9---8-9-9-9-8- 
---7---7---7---6-7-7-6-7---7---7---7---6-7-7-6-7---9---9---9---8-9-9-8-9---9---9---9---8-9-9-9-8- 
---5---5---5---4-5-5-4-5---5---5---5---4-5-5-4-5---7---7---7---6-7-7-6-7---7---7---7---6-7-7-7-6- 
------------------------------------------------------------------------------------------------- 



Last chord 

----- 
----- 
---7- 
---5- 
---5- 
----- 
            
Hard to play? Try these video lessons and learn fast. | Correct




comments powered by Disqus
↑ Back to top | Tablatures and chords are parodies/interpretations of the original songs. You may use it for private study, scholarship, research or language learning purposes only