>
 >
 >
Flowing 1

Flowing 1 Guitar Tabs

311 - Flowing 1 chords, tabs, tablatures, lyrics

Guitar lessons | Add/correct | Request | Top 50 tabs Artists:  A B C D E F G H I J K L M N O P Q R S T U V W X Y Z 0-9

Flowing 1 Guitar Tabs – 311

CD, Sheet music, Poster

Do you like Flowing 1? Share with your friends now
Bass TabsBass Tabs v2Bass Tabs v3ChordsTabsTabs v2Tabs v3Ukulele
Music: N. Hexum



Standard Tuning (all played with distortion except intro)

Intro clean w\ random step filter
1:-4-----3-----------2------2-- x2
2:-4-----4-----4-----2------2--
3:-5-----5-----4-----4------3--
4:-----------------------------
5:-----------------------------
6:-----------------------------



Chorus 1
e:--------------------------2--2--2--2-------------- x3
B:--------------------------2--2--2--2--------------
G:--5--5--5--5--5--5--5--5--4--4--4--4--------4--4--
D:--6--6--6--6--5--5--5--5--4--4--4--4--4--4--------
A:--6--6--6--6--3--3--3--3--2--2--2--2--4--4--2--2--
E:--4--4--4--4--3--3--3--3--------------2--2--------

e:--------------------------2--2--2--2--------------
B:--------------------------2--2--2--2--------------
G:--5--5--5--5--5--5--5--5--4--4--4--4--------------
D:--6--6--6--6--5--5--5--5--4--4--4--4--4-----------
A:--6--6--6--6--3--3--3--3--2--2--2--2--4-----------
E:--4--4--4--4--3--3--3--3--------------2-----------



Verse
e:--------------------------------------------------
B:--------------------------------------------------
G:--------------------------------------------------
D:--(3)--(4)-(4)-(4)--(5)--(6)-(6)-(6)--------------
A:---3----4---4---4----5----6---6---6---------------
E:---1----2---2---2----3----4---4---4---------------
          p.m......         p.m......

e:--------------------------------------------------
B:--------------------------------------------------
G:--------------------------------------------------
D:--(3)-(3)-(3)--(4)--(4)--(5)--(6)-(6)-(6)---------
A:---3---3---3----4----4----5----6---6---6----------
E:---1---1---1----2----2----3----4---4---4----------
     p.m......                   p.m......



Pre-Chorus
e:--------------------------------------------------
B:--------------------------------------------------
G:--------------------------------------------------
D:--(8)--(6)--(8)--(6)--(8)--(6)--(8)-(6)-----------
A:---8----6----8----6----8----6----8---6------------
E:---6----4----6----4----6----4----6---4------------

e:-------------------------------------------------- x2
B:--------------------------------------------------
G:--------------------------------------------------
D:--(3)-(3)-(3)-(4)-(4)-(4)-(5)-(5)-(5)-(6)-(6)-(6)-
A:---3---3---3---4---4---4---5---5---5---6---6---6--
E:---1---1---1---2---2---2---3---3---3---4---4---4--
     p.m..........................................

e:--------------------------------------------------
B:--------------------------------------------------
G:--------------------------------------------------
D:--(8)--(6)--(8)--(6)--(8)--(6)--(8)-(6)-----------
A:---8----6----8----6----8----6----8---6------------
E:---6----4----6----4----6----4----6---4------------

e:--------------------------------------------------
B:--------------------------------------------------
G:--------------------------------------------------
D:--(3)-(3)-(3)-(4)-(4)-(4)-(5)-(5)-(5)-(6)-(6)-(6)-
A:---3---3---3---4---4---4---5---5---5---6---6---6--
E:---1---1---1---2---2---2---3---3---3---4---4---4--
     p.m..........................................

e:--------------------------------------------------
B:--------------------------------------------------
G:--------------------------------------------------
D:--(3)-(3)-(3)-(4)-(4)-(4)-(5)-(5)-(5)-(6)-(6)-(6)-
A:---3---3---3---4---4---4---5---5---5---6---6---6--
E:---1---1---1---2---2---2---3---3---3---4---4---4--
     p.m..................



Chorus 2
e:--------------------------2--2--2--2-------------- x2
B:--------------------------2--2--2--2--------------
G:--5--5--5--5--5--5--5--5--4--4--4--4--------4--4--
D:--6--6--6--6--5--5--5--5--4--4--4--4--4--4--------
A:--6--6--6--6--3--3--3--3--2--2--2--2--4--4--2--2--
E:--4--4--4--4--3--3--3--3--------------2--2--------

e:-------------------------2--2--2-2-2-2-------------
B:--------------4--4--4--4-2--2--2-2-2-2-------------
G:--5--5--5--5--5--5--5--5-4--4--4-4-4-4--------4--4-
D:--6--6--6--6--5--5--5--5-4--4--4-4-4-4--4--4-------
A:--6--6--6--6--3--3--3--3-2--2--2-2-2-2--4--4--2--2-
E:--4--4--4--4--3--3--3--3----------------2--2-------
    short notes...........

e:--------------------------2--2--2--2--------------
B:--------------------------2--2--2--2--------------
G:--5--5--5--5--5--5--5--5--4--4--4--4--------------
D:--6--6--6--6--5--5--5--5--4--4--4--4--4-----------
A:--6--6--6--6--3--3--3--3--2--2--2--2--4-----------
E:--4--4--4--4--3--3--3--3--------------2-----------



(Verse)



(Pre-Chorus)



Chorus 3
e:--------------------------2--2--2--2-------------- x2
B:--------------------------2--2--2--2--------------
G:--5--5--5--5--5--5--5--5--4--4--4--4--------4--4--
D:--6--6--6--6--5--5--5--5--4--4--4--4--4--4--------
A:--6--6--6--6--3--3--3--3--2--2--2--2--4--4--2--2--
E:--4--4--4--4--3--3--3--3--------------2--2--------

e:--------------------------2--2--2-2-2-2-------------
B:--------------4--4--4--4--2--2--2-2-2-2-------------
G:--5--5--5--5--5--5--5--5--4--4--4-4-4-4--------4--4-
D:--6--6--6--6--5--5--5--5--4--4--4-4-4-4--4--4-------
A:--6--6--6--6--3--3--3--3--2--2--2-2-2-2--4--4--2--2-
E:--4--4--4--4--3--3--3--3-----------------2--2-------
    let ring.............................

e:--------------------------2--2--2--2--------------
B:--------------------------2--2--2--2--------------
G:--5--5--5--5--5--5--5--5--4--4--4--4--------------
D:--6--6--6--6--5--5--5--5--4--4--4--4--4-----------
A:--6--6--6--6--3--3--3--3--2--2--2--2--4-----------
E:--4--4--4--4--3--3--3--3--------------2-----------





Comments


Popular 311 tabs & chords
Beautiful Disaster 2 Bass Tabs
Crime Bass Tabs
Galaxy 2 Bass Tabs
Homebrew Bass Tabs
Strangers Bass Tabs
Strangers 2 Bass Tabs
Come Original 3 Tabs
Off Beat Bear Ass Tabs
Omaha Stylee Tabs
Time Bomb Tabs


Song lyrics



↑ Back to top | Tablatures and chords are parodies/interpretations of the original songs. You may use it for private study, scholarship, research or language learning purposes only
© 2014 AZChords.com Contact us | Privacy policy | DMCA | Add/correct tabs | Request tabs | Top 50 tabs