» »

/0-9/311-tabs-28.html

»

311, Fat Chance Bass tabs (ver.1)

Artists:  A B C D E F G H I J K L M N O P Q R S T U V W X Y Z # 

Fat Chance Bass tabs (ver.1)

311 Tabs
 Rating:
4/5 (4 votes)
Fat Chance lessons Tabs too difficult? Try these video lessons and learn fast
                'Fat Chance' -- Bass Tab
Performed by 311
Music by:  N. Hexum, C. Sexton, T. Mahoney & A. Wills
Lyrics by:  N. Hexum & D. Martinez
(c) 1993 Allegiance Music/Hydroponic Music BMI
---------------


Intro:

G:-0-0-0-0-0-0-0-0-0-0-0-0-0-0-0-
D:-0-0-0-0-0-0-0-0-0-0-0-0-0-0-0-
A:-0-0-0-0-0-0-0-0-0-0-0-0-0-0-0-
E:-0-0-0-0-0-0-0-0-0-0-0-0-0-0-0-
B:-0-0-0-0-0-0-0-0-0-0-0-0-0-0-0-


Chorus: 
Make sure you mute the pops with your hand to get the click noise!!

G:--------------X--X----------------
D:----------------------------------
A:------0---0-----------------------
E:-2-2----2-----------0-0-4-0-5-4-2-
B:----------------------------------


End Chorus:

G:-----------------
D:-----------------
A:-----------------
E:-2-2-4-2-4-4-4-0-
B:-----------------


Riff 1:

G:-----------------
D:-----------------
A:-----------------
E:-2---4-5-5-4-5-4-
B:-----------------


Riff 2:

G:-------------------
D:------4-4-2--2-2-4-
A:-------------------
E:-2-2---------------
B:-------------------


Riff 3:

G:---------
D:---------
A:---------
E:-2-4-5-4-
B:---------


Intro Break:

G:----------
D:----------
A:----------
E:-2--2-2-2-
B:----------


End Intro Break:

G:-----------
D:-----------
A:-----------
E:-2h4-4-4-0-
B:-----------


Slide (Very Fast):

G:---------------
D:---------------
A:---------------
E:-2///14\\\\\\2-
B:---------------


Break:
Sounds better if you slap it (Don't forget to mute the pops)
G:-----------X-X------------X-X-----------------------------7-5-5h7-
D:------------------------------------------------------------------
A:-----------------------------------------3-4-5--------------------
E:-0-0-0-0-0------0-0-0-0-0------0-0-0-0-0--------0-0-0-0-0---------
B:------------------------------------------------------------------


After Break:
Dont play the 14's the second time...

G:----------------------------------------------------------------
D:----------------------------------------------------------------
A:----------------------------------------------------------------
E:-0-2-0-2-0-2-0-2-0-2-0-2-0-2-0-2-0-2-2-2-2//////////14-14-14-14-
B:----------------------------------------------------------------


After After Break:
(Mute the Slaps)

G:-------------------------------X-X-
D:-----------------------------------
A:-----------------------------------
E:-0-0-0-0-0-0-0-0-0-0-0-0-0-0-------
B:-----------------------------------

The SOLO:
It's not as hard as it sounds...

G:-11-9-11-9-11---11-9h11-9-9-9-11---11-9h11-9-9-9-11---11-12-14-9-11-
D:--------------------------------------------------------------------
A:--------------------------------------------------------------------
E:--------------------------------------------------------------------
B:--------------------------------------------------------------------


After Solo:

G:---11-9-11-9-11---11-9-11-9-11---11-9-11-9-11-------------11-11-11-11-11-11
D:---------------------------------------------------------------------------
A:----------------------------------------------9-9-9-9-9-9------------------
E:-0--------------0--------------0-------------------------------------------
B:-0--------------0--------------0-------------------------------------------


Cool Part:

G:-------------------------------------------------------------------------
D:-------------------------------------------------------------------------
A:-------------------------------------------------------------------------
E:---------5-5-5--7-7-7-7-7-7-7-7----------5-5-5--7-7-7-7///19-19-19-19-19-
B:-7-7-7-7-------------------------7-7-7-7---------------------------------

G:--------------------------------------------------------------------------
D:--------------------------------------------------------------------------
A:--------------------------------------------------------------------------
E:----------555555-7777777777777777-----------555555--7-7-7-7-7-7-7-7//15\\-
B:-77777777--------------------------77777777-------------------------------


Basically thats it, P-Nut does some change ups here and there,
   but you'll know where they are.

Song Structure:
Intro
Chorus  (x3)
End Chorus  (x1)
Riff 1  (x4)
Riff 2  (x4)
Riff 3  (x4)
Chorus  (x3)
End Chorus  (x1)
Intro Break  (x2)
End Intro Break  (x1)
Slide
Break  (x1)
After Break  (x2)
After After Break  (x2)
Solo
After Solo
Cool Part
Riff 1  (x3)
Chorus
End Chorus
Intro
End on 2nd fret on E string and slide down


== Last Updated:  September 18, 1997 ==
            
Submit corrections

comments powered by Disqus
↑ Back to top | 311 Bass for Fat Chance. Lyrics for acoustic guitar and electric guitar. Tablatures and chords are parodies/interpretations of the original songs. You may use it for private study, scholarship, research or language learning purposes only