>
 >
 >
Electricity 2

Electricity 2 Guitar Tabs

311 - Electricity 2 chords, tabs, tablatures, lyrics

Guitar lessons | Add/correct | Request | Top 50 tabs Artists:  A B C D E F G H I J K L M N O P Q R S T U V W X Y Z 0-9

Electricity 2 Guitar Tabs – 311

CD, Sheet music, Poster

Do you like Electricity 2? Share with your friends now
Bass TabsBass Tabs v2ChordsTabsTabs v2Tabs v3
'Electricity'
Performed by 311
Music by:  N. Hexum 
Lyrics by:  N. Hexum
(c) 1997 Hydroponic Music BMI
---------------

Riff 1:
   D5/A   F#5        C5     B5      
1:------------------------------------
2:------------------------------------
3:-2-2-2-------------5-5-5--4-4-4-4-4-
4:-0-0-0--4-4-4-4-4--5-5-5--4-4-4-4-4-
5:-0-0-0--4-4-4-4-4--3-3-3--2-2-2-2-2-
6:--------2-2-2-2-2-------------------

Riff 2:
   E5         N.C.                      E5   N.C.
1:------------------------------------------------------------
2:------------------------------------------------------------
3:-9-9-9-9-9--------------------------------------------------
4:-9-9-9-9-9----------------------------2-2-------------------
5:-7-7-7-7-7--------------------------2-2-2-------------------
6:-7-7-7-7-7--0--2-2-2--3-3--2--0-2-3---0-0--0--2-2-2--3-3--2-

Riff 3:
   A5 G5 F#5 G5 A5 G5 F#5 G5 E5 G5 F#5
1:------------------------------------
2:------------------------------------
3:-2------------2------------2--------
4:-2--5--4---5--2--5--4---5--2--5---4-
5:-0--5--4---5--0--5--4---5--0--5---4-
6:----3--2---3-----3--2---3-----3---2-

Bridge:
   N.C.
1:-----------------------
2:-----------------------
3:-----------------------
4:-----------------------
5:-7-7-7-5-5-------------
6:-----------8-7-7-5-5-3-


Lyric/Song Structure:
---> Play Riff 1 (x2)
---> Play Riff 1 over:
   This song started as a rant against haters
   But that would be giving in to the instigators
   If there is one thing I'd like to pull off
   When someone steps with hate all I do is scoff
   You can't burn me Can't burn me
---> Play Riff 2 over:  
   The same force that flows through every circuit
   The juice that's spent every time you work it
   Every lifeform is based on this simplicity
   The soul that you have is electricity
---> Play Riff 3 over:
   You can't avoid that
   Evolution is fact
   We're of the same Lucy
   Despite differences you see
---> Play Bridge (x1)
---> Play Riff 1 over:
   I'm in disbelief at what people wil believe
   All along I thought we had our hearts on our shirtsleeves
   If one thing I can as a piece of advice
   Don't believe it til you see it and then see it twice
   It's so funny It's so funny
---> Play Riff 2 over:
   The same force that flows through every circuit
   The juice that's spent every time you work it
   Every lifeform is based on this simplicity
   The soul that you have is electricity
---> Play Riff 3 over:
   You can't avoid that
   Evolution is fact
   We're of the same Lucy
   Despite differences you see
   I call out for Unity
   In every province and city
   What do you think we've been saying
   Since we first started playing





Comments


Popular 311 tabs & chords
All Mixed Up 4-String Bass Tabs
Freeze Time Bass Tabs
Next Bass Tabs
Off Beat Bear Ass Bass Tabs
Paradise 1 Bass Tabs
T&P Combo Bass Tabs
Use Of Time Bass Tabs
Borders 1 Tabs
Down 4 Tabs
Lively Up Yourself Tabs


Song lyrics



↑ Back to top | Tablatures and chords are parodies/interpretations of the original songs. You may use it for private study, scholarship, research or language learning purposes only
© 2014 AZChords.com Contact us | Privacy policy | DMCA | Add/correct tabs | Request tabs | Top 50 tabs