» »

/0-9/311-tabs-28.html

»

311, Dlmd Bass tabs (ver.1)

Artists:  A B C D E F G H I J K L M N O P Q R S T U V W X Y Z # 

Dlmd Bass tabs (ver.1)

311 Tabs
 Rating:
4/5 (4 votes)
Dlmd  lessons Tabs too difficult? Try these video lessons and learn fast
1
                (2)
Riff 1:
g:-----------------------|
d:-----------------------|
a:5-3---------5-3--------|
e:----5-3---------5-3-1-5|
b:-----------------------|


Fill:
g:----------|
d:----------|
a:----------|
e:666666666/|
b:----------|


Riff 2:
g:-----------------------------------|
d:-----------------------------------|
a:-----------------------------------|
e:-----------------------------------|
b:3-1-3--3-1-3-1-3---3-1-3--3-1-3-1-3|


Riff 3:
g:-----------------------------------|
d:2-0-------------2-0----------------|
a:----2-0-------------2-0------------|
e:--------3-2-------------3-2-2-2-2-2|
b:-----------------------------------|


Riff 4:
g:-----------------------------------------------------------------------|
d:-----------------------------------------------------------------------|
a:----------------------------------------------------------------------5|
e:2-2-2-2-2-2-2-2---2-2-2-2-2-2-22----2-2-2-2-2-22-2-2-2-2-2-2--2-2-2-2--|
b:-----------------------------------------------------------------------|
            
Submit corrections

comments powered by Disqus
↑ Back to top | 311 Bass for Dlmd. Lyrics for acoustic guitar and electric guitar. 1 Tablatures and chords are parodies/interpretations of the original songs. You may use it for private study, scholarship, research or language learning purposes only