» »

/0-9/311-tabs-28.html

»

Creature Features Bass

Artists:  A B C D E F G H I J K L M N O P Q R S T U V W X Y Z # 

Creature Features Bass

(ver. 1)
311 Tabs
 Rating:
4/5 (4 votes)
    Creature Feature lessons Tabs too difficult? Try these video lessons and learn fast
                Riff A:

1:-------------------------------------------------------------
2:-------------------------------------------------------------
3:-------------------------------------------------------------
4:---7///---4-----2---3-2-0--------7///---4-----2---3-2-0------
5:-5------2---2-0---0-------2----5------2---2-0---0--------2-0-

-- or --

1:----9\\(6)---6\\(4)----4---5---4---------
2:-7---------4--------2----2--------7--4\\-
3:-----------------------------------------
4:-----------------------------------------
5:-----------------------------------------

1:----9\\(6)---6\\(4)----4----5-4-2-------
2:-7---------4--------2-----2-------4-2\\-
3:----------------------------------------
4:----------------------------------------
5:----------------------------------------

-- or --

G:----9\\(6)-----6------------------------
D:--7---------4-----4//-9--------10-9-7---
A:-------------------------7-(8)--------9-
E:----------------------------------------

Pre-Chorus:

1:---------0---------
2:-----0h2-----------
3:-3-3-------------1-
4:-----------3-1h3---

Chorus:

1:-------------------
2:-------------------
3:-4---4-----------2-
4:---4---4-4-3-2-4---
* Slight variation on 4th time, just listen *

Fill:

1:------------------------
2:------------------------
3:-0----------------------
4:---2-1-0------0-------0-


Song Structure:
Riff A  (x6)
Pre-chorus  (x4)
Chorus  (x8) (0:57)
Fill
Riff A  (x2) (1:24)
Pre-chorus  (x8)
Chorus  (x8) (2:07)
Fill
End On F
            
Submit corrections

↑ Back to top | 311 Bass for Creature Feature. Lyrics for acoustic guitar and electric guitar. Tablatures and chords are parodies/interpretations of the original songs. You may use it for private study, scholarship, research or language learning purposes only