» »

/0-9/311-tabs-28.html

»

Creature Feature Bass tabs (ver.2)

Artists:  A B C D E F G H I J K L M N O P Q R S T U V W X Y Z # 

Creature Feature Bass tabs (ver.2)

311
Rating:
0/5 (0 votes)

Tabs too difficult? Try these video lessons and learn fast.
                Bassist: P-Nut
Tuning: B-E-A-D-G
Notes: Played on a fretless


Intro/Verse 1:
G|-----9\---6-------4---5-4-2-------9\---6------4----5-4-2------|
D|--7-----4---4--2----2-------4--7-----4---4--2----2-------4-2--|
A|--------------------------------------------------------------|
E|--------------------------------------------------------------|
B|--------------------------------------------------------------| (x6)


Pre-Chorus: I Can't tell what P-Nut is playing behind all the reverbed guitars
            This is my best guess
G|---------------------3---------------------3--|
D|-----------------3h5-------------------3h5----|
A|--3--3-3---3-3----------3--3-3---3-3----------|
E|----------------------------------------------|
B|----------------------------------------------| (x2)


Chorus:
G|--------------------4---------------------4--|
D|--------------4---3-----------------4---3----|
A|--4-----4---3---2-------4-----4---3---2------|
E|------3---3-----------------3---3------------|
B|---------------------------------------------|

G|--------------------4---------------------4-3--|
D|--------------4---3-----------------4---3------|
A|--4-----4---3---2-------4-----4---3---2--------|
E|------3---3-----------------3---3--------------|
B|-----------------------------------------------|

G|--------------------4---------------------4--|
D|--------------4---3-----------------4---3----|
A|--4-----4---3---2-------4-----4---3---2------|
E|------3---3-----------------3---3------------|
B|---------------------------------------------|

G|--------------------4---------------------4-3------------------|
D|--------------4---3-----------------4---3-----4-3-2----2----2--|
A|--4-----4---3---2-------4-----4---3---2------------------------|
E|------3---3-----------------3---3------------------------------|
B|---------------------------------------------------------------|


Verse 2:
G|-----9\---6-------4---5-4-2-------9\---6------4----5-4-2------|
D|--7-----4---4--2----2-------4--7-----4---4--2----2-------4-2--|
A|--------------------------------------------------------------|
E|--------------------------------------------------------------|
B|--------------------------------------------------------------| (x2)


Pre-Chorus:
G|---------------------3---------------------3--|
D|-----------------3h5-------------------3h5----|
A|--3--3-3---3-3----------3--3-3---3-3----------|
E|----------------------------------------------|
B|----------------------------------------------| (x4)


Chorus/Outro:
G|--------------------4---------------------4--|
D|--------------4---3-----------------4---3----|
A|--4-----4---3---2-------4-----4---3---2------|
E|------3---3-----------------3---3------------|
B|---------------------------------------------|

G|--------------------4---------------------4-3--|
D|--------------4---3-----------------4---3------|
A|--------4---3---2-------------4---3---2--------|
E|------3---3-----------------3---3--------------|
B|--2---------------------2----------------------|

G|--------------------4---------------------4--|
D|--------------4---3-----------------4---3----|
A|--------4---3---2-------4-----4---3---2------|
E|------3---3-----------------3---3------------|
B|--2------------------------------------------|

G|--------------------4---------------------4-3----------------------|
D|--------------4---3-----------------4---3-----4-3-2----2-----------|
A|--------4---3---2-------4-----4---3---2----------------------------|
E|------3---3-----------------3---3---------------------------0---1--|
B|--2----------------------------------------------------------------|
            
Tabs too difficult? Try these video lessons and learn fast.




comments powered by Disqus
↑ Back to top | Tablatures and chords are parodies/interpretations of the original songs. You may use it for private study, scholarship, research or language learning purposes only