» »

/0-9/311-tabs-28.html

»

311, Coda Bass tabs (ver.1)

Artists:  A B C D E F G H I J K L M N O P Q R S T U V W X Y Z # 

Coda Bass tabs (ver.1)

311 Tabs
Rating:
5/5 (5 votes)
Coda lessons Tabs too difficult? Try these video lessons and learn fast
                311
Coda (Sonetimes Jacks Rule the Realm)


G--------17-----17-------------12h14h12------
D-----17------17------------14----------14/16
A--15-------14------12~~~~-------------------
E--------------------------------------------
B--------------------------------------------

G------17-------17-------------------12----14
D----17-------17-----------------14----14----
A--15-------14------12~~~~-------------------
E--------------------------------------------
B--------------------------------------------

G--------17-----17-------------12h14h12------
D-----17------17------------14----------14/16
A--15-------14------12~~~~-------------------
E--------------------------------------------
B--------------------------------------------


G------17-------17-------------------12----14
D----17-------17-----------------14----14----
A--15-------14------12~~~~-------------------
E--------------------------------------------
B--------------------------------------------

G------17---19--17-----17-16-14-------------------14-12--------------------
D----17--17---17---------------17-15-14h15h14-----------12/14/15-15-15-----
A--15------------15-14-------------------------12---------------------12h14
E--------------------------------------------------------------------------
B--------------------------------------------------------------------------

G------17---19--17-----17-16-14-------------------14-12--------------------
D----17--17---17---------------17-15-14h15h14-----------12/14/15-15-15-----
A--15------------15-14-------------------------12---------------------12h14
E--------------------------------------------------------------------------
B--------------------------------------------------------------------------

G--------17-----17-------------12h14h12------
D-----17------17------------14----------14/16
A--15-------14------12~~~~-------------------
E--------------------------------------------
B--------------------------------------------


G------17-------17-------------------12----14
D----17-------17-----------------14----14----
A--15-------14------12~~~~-------------------
E--------------------------------------------
B--------------------------------------------

G--------17-----17-------------12h14h12------
D-----17------17------------14----------14/16
A--15-------14------12~~~~-------------------
E--------------------------------------------
B--------------------------------------------


G------17-------17-------------------12----14
D----17-------17-----------------14----14----
A--15-------14------12~~~~-------------------
E--------------------------------------------
B--------------------------------------------

G------17---19--17-----17-16-14-------------------14-12--------------------
D----17--17---17---------------17-15-14h15h14-----------12/14/15-15-15-----
A--15------------15-14-------------------------12---------------------12h14
E--------------------------------------------------------------------------
B--------------------------------------------------------------------------

G------17---19--17-----17-16-14-------------------14-12--------------------
D----17--17---17---------------17-15-14h15h14-----------12/14/15-15-15-----
A--15------------15-14-------------------------12---------------------12h14
E--------------------------------------------------------------------------
B--------------------------------------------------------------------------

G--------17-----17---------
D-----17------17-----------
A--15-------14------12-rest
E--------------------------
B--------------------------


G------17-------17-----14-12--------------
D----17-------17------------12/15-15-14-12
A--15-------14------12--------------------
E-----------------------------------------
B-----------------------------------------

G--------17-----17---------
D-----17------17-----------
A--15-------14------12-rest
E--------------------------
B--------------------------

G--17------16
D--17--17--17
A------17----
E------------
B------------
            

comments powered by Disqus
↑ Back to top | 311 Bass for Coda. Lyrics for acoustic guitar and electric guitar. Tablatures and chords are parodies/interpretations of the original songs. You may use it for private study, scholarship, research or language learning purposes only