» »

/0-9/311-tabs-28.html

»

Champagne Bass tabs (ver.1)

Artists:  A B C D E F G H I J K L M N O P Q R S T U V W X Y Z # 

Champagne Bass tabs (ver.1)

311
Rating:
0/5 (0 votes)

Hard to play? Try these video lessons and learn fast.
                Bassist: P-Nut
Tuning: B-E-A-D-G
Notes:


Verse 1:
G|-------------------------------------------------------------------|
D|-------------------------------------------------------------------|
A|---------------3------------------2------------------2----4-4-4-4--|
E|--5--3-5-3-5-3---5---3--2-3-2-3-2---3--2---5--2---3----------------|
B|-------------------------------------------------------------------| (x4)


Chorus:
G|---------------------------------------------------------|
D|---------------------------------------------------------|
A|-------------------------------------------2----4-4-4-4--|
E|--1---/5--3--0---5---0-x5-0---1---5--3--5----------------|
B|---------------------------------------------------------|

G|--------------------------------------------------------|
D|--------------------------------------------------------|
A|------------------------------------------2----4-4-4-4--|
E|--1---5--3--0--5---0--5--0--1---5--3---5----------------|
B|--------------------------------------------------------|


Verse 2:
G|-------------------------------------------------------------------|
D|-------------------------------------------------------------------|
A|---------------3------------------2------------------2----4-4-4-4--|
E|--5--3-5-3-5-3---5---3--2-3-2-3-2---3--2---5--2---3----------------|
B|-------------------------------------------------------------------| (x2)

G|---------------------------------------------------------|
D|---------------------------------------------------------|
A|-------------------------------------------2----4-4-4-4--|
E|--1---/5--3--0---5---0-x5-0--x1---5--3--5----------------|
B|---------------------------------------------------------|

G|--------------------------------------------------------|
D|--------------------------------------------------------|
A|------------------------------------------2----4-4-4-4--|
E|--1---5--3--0--5---0-x5-x0-x1---5--3---5----------------|
B|--------------------------------------------------------|


Chorus:
G|----------------------------------------------|
D|----------------------------------------------|
A|--------------------4~---------------4-4-4-4--|
E|--5~-------3~-------2~-------3~---------------|
B|----------------------------------------------|


Verse 3:
G|-------------------------------------------------------------------|
D|-------------------------------------------------------------------|
A|---------------3------------------2------------------2----4-4-4-4--|
E|--5--3-5-3-5-3---5---3--2-3-2-3-2---3--2---5--2---3----------------|
B|-------------------------------------------------------------------|


Chorus:
G|----------------------------------------------------------|
D|----------------------------------------------------------|
A|--------------------------------------------2----4-4-4-4--|
E|--1---/5--3--0---5---0--5-0---1---5--3---5----------------|
B|----------------------------------------------------------|

G|--------------------------------------------------------|
D|--------------------------------------------------------|
A|------------------------------------------2----4-4-4-4--|
E|--1---5--3--0--5---0--5--0--1---5--3---5----------------|
B|--------------------------------------------------------|


Outro:
G|--------------------------------------|
D|--------------------------------------|
A|--5~------4~--------------------------|
E|------------------2~------5~------5~--|
B|----------------------------------3~--|
            
Hard to play? Try these video lessons and learn fast. | Correct




comments powered by Disqus
↑ Back to top | Tablatures and chords are parodies/interpretations of the original songs. You may use it for private study, scholarship, research or language learning purposes only