» »

/0-9/311-tabs-28.html

»

311, Applied Science Bass tabs (ver.2)

Artists:  A B C D E F G H I J K L M N O P Q R S T U V W X Y Z # 

Applied Science Bass tabs (ver.2)

311 Tabs
 Rating:
4/5 (4 votes)
Applied Science lessons Tabs too difficult? Try these video lessons and learn fast
1
                Riff 1:
g:------------------------------------------|
d:------------------------------------------|
a:------------------------------------------|
e:3-1--1-1-3-3-1-3-1-3--3-1--1-1-3-3-1-3-1-3|

Riff 2:
g:-----------------------|
d:3-1-----1-----------1-1|
a:----4-1---------1-4----|
e:----------2-3----------|

Fill:
g:-------|
d:-------|
a:1-4-1-4|
e:-------|

Riff 3:
g:------------------------------------------|
d:------------------------------------------|
a:--------------------------------(1-1-1-)--|Last time
e:2-2-2-2-2--1-1-1-1-1--2-2-2-2-2--1-1-1-1-1|

Riff 4:
g:------------|
d:------------|
a:------------|
e:44444-222212|

Riff 5:
g:---------------------------------------------|
d:---------------------------------------------|
a:---------------------------------------------|
e:1--1-1-1111--1-1-1-2--2-2-2-1--1-1-1-2--2-2-2|

End:
g:----|
d:----|
a:1---|
e:1---|
            
Submit corrections

comments powered by Disqus
↑ Back to top | 311 Bass for Applied Science. Lyrics for acoustic guitar and electric guitar. 1 Tablatures and chords are parodies/interpretations of the original songs. You may use it for private study, scholarship, research or language learning purposes only