» »

/0-9/311-tabs-28.html

»

311, Amber Tabs (ver.3)

Artists:  A B C D E F G H I J K L M N O P Q R S T U V W X Y Z # 

Amber Tabs (ver.3)

311 Tabs
 Rating:
2.9/5 (9 votes)
Amber lessons Tabs too difficult? Try these video lessons and learn fast
1
                -------------------------------------------------------------------------------
                             Amber - 311
-------------------------------------------------------------------------------

Tuning: Standard



Intro (play 2 times)

e|--------------------------------------------------------------------------R|
B|--------------------------------------------------------------------------E|
G|--------------------------------9-----------------------------------------P|
D|---h--h----9----------h-----10-----10----------------9------------9-------E|
A|-7--8--10-----10----10--12------------------h----10-----10--(10)------10--A|
E|-----------------------------------------10--12---------------------------T|
                                                                          (1x)

When bass comes in, timing changes slightly and remains this way whenever used
through out the rest of the song. Use song for reference.

CHorus:

This second guitar track comes in right at the chorus. It doubles over the 
part above, It has a loose, reggae feel to it.  don't really worry about 
nailing it. Just feel it.

e|(C)--8----8-------5---5------3---3---3---3----r---5---5---5---5------------|
B|(o)--8----8-------5---5------3---3---3---3----e---6---6---6---6------------|
G|(d)--9----9-------5---5------4---4---4---4----p---7---7---7---7------------|
D|(a)--10---10-----------------5---5---5---5----e---7---7---7---7------------|
A|( )-------------------------------------------a----------------------------|
E|( )-------------------------------------------t----------------------------|
         "Whoa-ohh.........Amber(etc)...    (1x)           "you wanna know.."
         "whoa-ohh.........shades of gold(etc)...          "Flying through..


                                        (Guitar solo)

e|--3----3----3---3--r----------------I--7/8--8--10---12--- 10----8---10\(7)-7|
B|--3----3----3---3--e--(return)------I---------------------------------------|
G|--4----4----4---4--p----(to)--------I--4/5--5---7----9-----7----5----7\(4)-4|
D|--5----5----5---5--e---(coda)-------I---------------------------------------|
A|-------------------a----------------I---------------------------------------|
E|-------------------t----------------I---------------------------------------|
  "..here...."
  "..fear...and you know I...."

(solo-cont)

e|-----------------7/8---8----10---12----10-----8----10\(7) 7-----7--10---7--|
B|-3-3-----------------------------------------------------------------------|
G|-4-4--4----------4/5---5-----7----9-----7-----5-----7\(4)-4-----4---7---4--|
D|------5--------------------------------------------------------------------|
A|---------------------------------------------------------------------------|
E|---------------------------------------------------------------------------|


(solo-cont.)
    
e|--7---8--------------------------------------------------------------------|
B|---------------------------------------------------------------------------|
G|--4---5--(vol.swl)-2---4----5---4---2---2/4--------4---5---7---5---4---4/5-|
D|---------(vol.swl)-3---5----7---5---3---3/5--------5---7---9---7---5---5/7-|
A|---------------------------------------------------------------------------|
E|---------------------------------------------------------------------------|


                                           (end solo- return to chorus)
e|---------------------------------------------------------------------------|
B|-------------------------------7------5------------------------------------|
G|-5/7---7/9----7---5---4------4-------4-------------------------------------|
D|-7/9---9/10---9---7---5-----5-------5--------------------------------------|
A|-----------------------------------3---------------------------------------|
E|---------------------------------------------------------------------------|

bridge (part 1)

Guitar one
e|-----8--------------10-------------12--------------15--12------------------|
B|----8-------------10-------------12----------13-15--------13---------------|
G|---9------------10-------------12----------------------------12------------|
D|-10-----------12-------------14--------------------------------------------|
A|---------------------------------------------------------------------------|
E|---------------------------------------------------------------------------|

Guitar two
e|---------------------------------------------------------------------------|
B|----------------------------------------------h----10----------------------|
G|--5/7\5-----------7/9\7----------9\7/9-------7--9------9--7----------------|
D|-------------------------------------------------------------9-------------|
A|---------------------------------------------------------------------------|
E|---------------------------------------------------------------------------|

bridge (part 2)
                             2nd time cont. ---->
e|------0-----------------------0--r-----3-----------------------------------|
B|-----1-----------------------0---e----3--------------------------0---------|
G|----2-----------------------0----p---0-----------------------0-------------|
D|---2-----------------------2-----e--2----------------------3---------------|
A|--0-----------------------2------a-----------------------3-----------------|
E|-------------------------0-------t---------------------1-------------------|
              "you live to far----away...."                           "don't..
                 "..like a bell any--way---" 


e|--------------0-------------------------------------------3--------3-------|
B|----------0--------------------------0-------------------3--------5--------|
G|-------0--------------------------0---------------0-----4--------4---------|
D|-----2--------------------------3---------------2------5--------5----------|
A|---2--------------------------3---------------2-------5--------3-----------|
E|-0--------------------------1---------------0--------3---------------------|
   "-dependence (etc.)...


Return to chorus.

Notes:
 
This is a good song for beginners to learn some pretty necessary techniques
but also a good song for intermediate players to try to master. It has a
little bit of everything. On the solo I prefer to play everything except
the last two chords with my fingers. It allows for a cleaner, more precise
technique that is good to practice, plus it will help warm up the tone as
 it sounds on the recording. 
Bridge 1 is recorded with two guitars but you can easily get away with just
 playing guitar 1's part. I included guitar 2
just so no one would be wondering why guitar part 1 by itself doesn't quite
sound right and also to show how the simple notes of guitar 2 really do
contribute to the simple dynamics of that part.

template, which without I would have never even thought about doing this.
Let me know what you think. I hope you enjoy.

Peace.
-Al



| /  slide up
| \  slide down
| h  hammer-on
| p  pull-off
| ~  vibrato
| +  harmonic
| x  Mute note
===============================================================================
            
Submit corrections

comments powered by Disqus
↑ Back to top | 311 Tabs for Amber. Lyrics for acoustic guitar and electric guitar. 1 Tablatures and chords are parodies/interpretations of the original songs. You may use it for private study, scholarship, research or language learning purposes only