» » »

Cancion De Amor Bass tabs (ver.3)

Artists:  A B C D E F G H I J K L M N O P Q R S T U V W X Y Z # 

Cancion De Amor Bass tabs (ver.3)

2 Minutos
Rating:
0/5 (0 votes)

Tabs too difficult? Try these video lessons and learn fast.
                INTRO
G-------------------------------------------------------
D-------------------------------------------------------
A--------------------55-75-5----------------------------
E--3(6)---7(6)--5(6)---------7-5-3----------------------

VERSE/FAST
G--------------------
D--------------------
A---------------5(6)-
E-3(6)-7(6)-5(6)-----
  
CHORUS
G-----------------
D-----------------
A-7(6)-----5(12)--
E-----8(6)--------

()POR EL NUMERO DE VECES
            
Tabs too difficult? Try these video lessons and learn fast.




comments powered by Disqus
↑ Back to top | Tablatures and chords are parodies/interpretations of the original songs. You may use it for private study, scholarship, research or language learning purposes only